Swallowed

Bush

E barr 4 E bar 8 E bar 9 E bar 6
e-/----------------------------------------------------
b-/----------------------------------------------------
g-/----------------------------------------------------
d-/--------6-----------10----------11----------8-------
a-/------6----------10----------11-----------8---------
e-/----4----------8-----------9------------6-----------

This is repeated a couple time solo and then the rest of the
instruments come in and it switches to the strummed chords. There each
about a measure long, and it is repeated on guitar one throughout the
entire song, except when figure one is being played.
Figure 2:
E bar4 E bar8 Emin bar9 E bar 6
e-/----4-----------8----------9-------------6---------------
b-/----4-----------8----------9-------------6---------------
g-/----5-----------9----------9-------------7---------------
d-/----6-----------10---------11------------8---------------
a-/----6-----------10---------11------------8---------------
e-/----4-----------8----------9-------------6---------------

And that's just about it! The song is called swallowed and it's on the
new Bush: Razor Blade Suitcase. That won't be out for another month.
Enjoy this. Questions, comments, or requests, even if it's not yet in
stores, e-mail at "marcz@netcom.ix.com"
Date: Sat, 30 Nov 1996 16:22:15 -0400
From: "Matthew K. Brand"
This is the verse, its just approximate, you'll figure it out.
e--------------------------|
b--------------------------|
g---6--6-----10-10----10---|
d-6-6-6-6-10-10-10-10----10|
a-6-4-----10--8--8---------|
e-4--------8---------------|

Chorus (I think)
e---------------------------------------------------------------|
b---------------------------------------------------------------|
g---------------------------------------------------------------|
d-6-6-6-6-6-6-10-10-10-10-10-10-11-11-11-11-11-11-11-8-8-8-8-8-8|
a-6-6-6-6-6-6-10-10-10-10-10-10-11-11-11-11-11-11-11-8-8-8-8-8-8|
e-4-4-4-4-4-4--8--8--8--8--8--8--9--9--9--9--9--9--9-6-6-6-6-6-6|

Bridge (I'm with everyone and yet...)
(I miss the one that I love alot)
e------------------------------|
b------------------------------|
g------------------------------|
d-6-6-6-6-6-6-10-10-10-10-10-10|
a-6-6-6-6-6-6-10-10-10-10-10-10|
e-4-4-4-4-4-4--8--8--8--8--8--8|

Solos? Yeah right! I suck at those!
There are a couple of other parts in this song, but not to fear, their
based on the chorus and bridge.
song: SWALLOWED
band: B*U*S*H
tabbed by: CHRIS ALLEN (SHIRESBOYS@aol.com)
album: RAZORBLADE SUITCASES
this is the band's first single off of their new album RAZORBLADE
SUITCASES. It is a really good song and i enjoy listening to it as
well as playing it. Here the real way it goes.
intro
E--------------------------------------------------------------------
B--------------------------------------------------------------------
G----------------- 6 -------------------- 10 ------------------------
D--------- 6 - 6 ---------- 10 ----- 10 -----------------------------
A--------- 4 ------------------- 8 ----------------------------------
E----- 4 ------------ 4/8 -------------------------------------------

Chorus
E--------------------------------------------------------------------
B--------------------------------------------------------------------
G----- 5 ---- 9 ---- 10 --- 7 ---------------------------------------
D----- 6 ---- 10 --- 11 --- 8 ---------------------------------------
A----- 6 ---- 10 --- 11 --- 8 ---------------------------------------
E----- 4 ---- 8 ---- 9 ---- 6 ---------------------------------------

Verse 2
E--------------------------------------------------------------------
B--------------------------------------------------------------------
G------------- 6 - 6 - 6 ------------------ 10 - 10 - 10 ------------
D----- 6 - 6 - 6 - 6 - 6 - 6/10 - 10 - 10 - 10 - 10 - 10 ------------
A----- 6 - 6 - 4 - 4 - 4 - 6/10 - 10 - 10 - 8 -- 8 -- 8 -------------
E----- 4 - 4 ------------- 4/8 -- 8 -- 8 ----------------------------

Solo
E--------------------------------------------------------------------
B----------------- 3/4 - 4 - 5 ----- 5 ----- 5 ----- 5 --------------
G- 1 - 1 - 1 - 1 --------------- 5 ----- 5 ----- 5 ----- 5 ----------
D--------------------------------------------------------------------
A--------------------------------------------------------------------
E--------------------------------------------------------------------
E--------------------------------------------------------------------
B----------------- 3/4 - 4 - 5 ----- 5 ----- 5 ----- 5 --------------
G- 1 - 1 - 1 - 1 --------------- 5 ----- 5 ----- 5 ----- 5 ----------
D--------------------------------------------------------------------
A--------------------------------------------------------------------
E--------------------------------------------------------------------
E--------------------------------- 8 - 8 - 8 - 12 - 12 - 12 - 12 ----
B- 9 - 9 - 9 - 9 - 8 - 8 - 8 - 8 ------------------------------------
G--------------------------------------------------------------------
D--------------------------------------------------------------------
A--------------------------------------------------------------------
E--------------------------------------------------------------------
E--------------------------------- 8 - 8 - 8 - 8 - 12 - 8 -----------
B- 9 - 9 - 9 - 9 - 8 - 8 - 8 - 8 ------------------------------------
G--------------------------------------------------------------------
D--------------------------------------------------------------------
A--------------------------------------------------------------------
E--------------------------------------------------------------------

Chorus End 1 (this is also played during solo)
E--------------------------------------------------------------------
B--------------------------------------------------------------------
G--- 5 ------ 9 -----------------------------------------------------
D--- 6 ------ 10 ----------------------------------------------------
A--- 6 ------ 10 ----------------------------------------------------
E--- 4 ------ 8 -----------------------------------------------------

this part below comes in after the second chorus right before the solo
E--- x - x - x - x - x - x - x - x - x - x - x - x - x - x - x - x --
B--- 5 - 5 - 5 - 5 - 5 - 5 - 5 - 5 - 5^1/2 - 5^1/2 - 5^1/2 - 5^1/2 --
G--------------------------------------------------------------------
D--------------------------------------------------------------------
A--------------------------------------------------------------------
E--------------------------------------------------------------------

Ending
this is just random picking on these chords
E--------------------------------------------------------------------
B--------------------------------------------------------------------
G-- 10 ------ 7 -----------------------------------------------------
D-- 11 ------ 8 -----------------------------------------------------
A-- 11 ------ 8 -----------------------------------------------------
E-- 9 ------- 6 ------ 4 - 4 - 4 - 4 - 4 - 4 - 4 - 4 - 4 - 4 - 4 - 4-

here's the order it goes
intro 4X
chorus 2x
chorus end 2x
verse 2 2x
chorus 3X
Chorus End 3X
picking part
solo
intro 4X
Chorus 2X
Chorus End 10X
Ending (fade out with the G# note)
here's lyrics
Warm sun, feed me up when
I'm leary, load it up
Loathing, for a change and
I slip some, blow it away
*chorus*
Swallowed, followed, happy bout everything but my love
Swallowed, sorrowed, I'm with everyone and yet not
Im with everyone and yet not
Im with everyone and yet
Just wanna be myself
Hey you said you would, love to try some
hey you said you would love to die some
In the middle of a world on a fish hook,
your the wave, your the wave, your the wave
*chorus*
Swallowed, borrowed, happy bout everything and yet not
Swallowed, hollowed, sharper bout everyone but yourself
Swallowed, I know, Im with everyone and yet not
Im with everyone and yet not
Im with everyone and yet not
Im with everyone and yet
Heres some, self-esteem enough
for words, busted me
sick head, blackened lungs and Im a
Simple, selfish son
*chorus*
Swallowed, borrowed, happy bout everything but my love
Swallowed, I know, Im with everyone and yet not
Im with everyone and yet not
Im with everyone and yet not
Gotta get away from here
Gotta get away from here
Gotta get away from here
Gotta get away from here
Miss the one that i love alot
Miss the one that i love alot
Miss the one that i love alot
I love
Date: Mon, 23 Dec 1996 15:03:48 -0700
From: Brother Beavis
"Swallowed" by Bush
Transcribed by Pat Robison
>From the CD Razorblade Suitcase on Trauma Records
I assume the words and music are by Gavin Rossdale and Nigel Pulsford
(Lyrics as according to the CD)
****
I saw them play this song on SNL last week, so this is pretty close to
exactly how they do it
I haven't even seen the version of this in Guitar World, so I guess it could
be a wee bit different from that
KEY:
(V) - do a little vibrato baby!
/ - slide up
\ - slide down
* - play me muted
Begins with Gavin doing this little strum thing using these chords
(So you can call this the verse)
 G#majC#majCmajFmaj
|--4-------------------------------------|
|--4---------------------------------8---|
|--5------------10-------------------10--|
|--6------------11---------------10------|
|--6--*-----11------------*---8----------|
|--4--*---9---------8--8--*--------------|

Warm sun feed me up . . .
Anyhow you do that four times and then launch into the chorus
The guitar's on a whole bunch of loud distortion, POUND THEM STRINGS DAMMIT!
(This is what Gavin's playing)
 G#majCmajC#majA#maj
|----4-------------8-------------9-------------6------|
|----4-------------8-------------9-------------6------|
|----5-------------9-------------10------------7------|
|----6-------------10------------11------------8------|
|----6-------------10------------11------------8------|
|----4-------------8-------------9-------------6------|

Swallowed . . . Followed . . . Heavy bout everything etc.
Meanwhile back at the fort Nigel is playing some little whiny thing over
those chords that goes something like this...he uses at least a little
wah-wah effect
|-----------------------------------------9---9---------|
|---9-9-9-9-9-9-9-9-\-8-8-8-8-8-8-8-8-/-9---9---9-------|
|-------------------------------------------------------|
|-------------------------------------------------11-11-|
|-------------------------------------------------------|
|-------------------------------------------------------|
|-------------------------------|
|---9-9-9-9-9-9-9-9\8-8-6-6-5---|
|-----------------------------5-|
|-------------------------------|
|-------------------------------|
|-------------------------------|

Then it goes into a quiet part and I guess Gavin just hits the roots of the
intro chords...
|--------------------------------|
|--------------------------------|
|--------------------------------|
|--------------------------------|
|------------------------8-8-8---|
|-4-4--4-/-9--9-9--9-8-8---------|

plays that a couple times then says uh . . . "Just wanna be myself"
stops playing while bass plays on
then he goes "He said you would love to try some" and plays
 G#majC#maj
|---4-4----*----4-4-4-|
|---4-4----*----6-6-6-|
|---5-5----*----6-6-6-|
|---6-6----*----6-6-6-|
|---6-6----*----4-4-4-|
|---4-4----*----------|

He says something and does that again, then goes into the chorus
After that you get a little Jimmy Page mixed with Tom Sholes riff from Nigel
BUT FIRST! Gavin does this gradual bend with a pained look on his face
|--------------------------------------------|
|--------------------------------------------|
|----9-9-9-9-9b10-10-10-10-10-10b11-11-11-11-|
|--------------------------------------------|
|--------------------------------------------|
|--------------------------------------------|

Then the riff...
|---------------------------------------------------------------------------|
|---------------------------------------------------------------------------|
|------------------8-9----9----9----------------------8-9----9----9---------|
|-/(V)6-6-6-6-6/10-----10---10---10-10--(V)6-6-6-6-6/10-----10---10---10-10-|
|---------------------------------------------------------------------------|
|---------------------------------------------------------------------------|
|---------------------------------------------------------------------------|
|-9---9---9--9----8---8---8--8-------------------15b16-16-16----------------|
|-11b-12b-13-13---10b-11b-12-12---/16b17-17-17----------------/16b-17-17----|
|---------------------------------------------------------------------------|
|---------------------------------------------------------------------------|
|---------------------------------------------------------------------------|
|-------------|

|-15b16-16-16-|
|-------------|
|-------------|
|-------------|
|-------------|

Oh yeah and Gavin is playing these back and forth under Nigel:
 G#majCMaj
|--4--------3---|
|--4--------5---|
|--5--------5---|
|--6--------5---|
|--6--------3---|
|--4------------|  

Then Nigel slides down I guess...
and the verse part starts up again, and they turn up the bass for part of it
Then it's back to the chorus!
They go to the riff part again, this time with Gavin singing over it and
Nigel kind of mixes a part of the riff with what he plays during the normal
chorus
Then everything just kind of calms down and Gavin hits a couple notes in the
verse chords and it ends with him playing this over and over:
|--------------------|
|--------------------|
|--------------------|
|--------------------|
|--------------------|
|-4-4-*-4-4-4-*-4-4-4|  

Unless, of course, that's the bass!!
LYRICS:
Warm sun, feed me up
I'm leery, loaded up
Loathing for a change
and I slip some boil away
Swallowed! Followed!
I'm heavy bout everything but my love
I'm with everyone and yet not
I'm with everyone and yet not
Just wanted to be myself
Hey you said you would love to try some
Hey you said you would love to die some
in the middle of a world on a fishhook
you're the wave, you're the wave, you're the wave
Swallowed! Borrowed!
Heavy bout everything but my love
Swallowed! Hollowed!
Sharp about everyone but yourself
Swallowed . . . oh no I'm with everyone and yet not
I'm with everyone and you're not, I'm on everyone and yet
Piss on self-esteem forward busted knee
Sick head, blackened lungs and I'm simple selfish son
Swallowed! Followed! Swallowed!
Oh no I'm with everyone and yet not
Got to get away from here
I miss the one that I love a lot
I miss the one that I love a lot
Date: Mon, 23 Dec 1996 10:26:02 -0800
From: Barbara Solomon
Artist: BUSH
Song: SWALLOWED
Album: RAZORBLADE SUITCASE
Tabbed by Nate Reilly (with help from Sean)
This is all right on, so all you got to do is listen to the CD for
the rythym. Enjoy this piece of BUSH ecstasy.
Here's the opening chords.
E|-4--1--0--1----------------------------------------|
B|-4--1--1--1----------------------------------------|
G|-5--3--0--1----------------------------------------|
D|-6--3--2--3----------------------------------------|
A|-6--1--3--3----------------------------------------|
e|-4--X--X--1----------------------------------------|

This goes with the chorus
E|--------------------------------------------------------------------|
B|------------------5-5-5-5-5-5-5-5--6-6-6-6-6-6-6-6--3-3-3-3-3-3-3-3-|
G|-6-6-6-6-6-6-6-6--5-5-5-5-5-5-5-5--6-6-6-6-6-6-6-6--3-3-3-3-3-3-3-3-|
D|-6-6-6-6-6-6-6-6--3-3-3-3-3-3-3-3--4-4-4-4-4-4-4-4--1-1-1-1-1-1-1-1-|
e|-4-4-4-4-4-4-4-4----------------------------------------------------|

Swallowed Followed Heavy about everything...
E|---------------------------------------------------|
B|---------------------------------------------------|
G|----------6-6-6-6--5-5-5-3-------------------------|
D|-6-6-6-6--6-6-6-6--5-5-5-3-------------------------|
A|-6-6-6-6--4-4-4-4--3-3-3-1-------------------------|
e|-4-4-4-4-------------------------------------------|

I'm with everyone and yet not...
I think this is bass, but you can do it on guitar, too.
E|---------------------------------------------------|
B|---------------------------------------------------|
G|-------6-6-6-5-5-5-10-10-10------------------------|
D|-6-6-6-6-6-6-5-5-5-10-10-10------------------------|
A|-6-6-6-4-4-4-3-3-3-8--8--8-------------------------|
e|-4-4-4---------------------------------------------|

Hey, you said you'd like to try some...
Here's the solo:
E|---------------------------------------------------|
B|-5-5-5-5-5-5-5-5-5b-5b-5b-5b-----------------------|
G|---------------------------------------------------|
D|---------------------------------------------------|
A|---------------------------------------------------|
e|---------------------------------------------------|

(Or something like that-- listen to the song!!)
E|-8---8----------8---8---8--------------------------|
B|---9---9-------------------------------------------|
G|------------8-9---9---9---9--------------8-9-------|
D|---------10-----------------6-6-6-6-8/10-----------|
A|----------------------------6-6-6-6----------------|
e|----------------------------4-4-4-4----------------|
E|---------------------------------------------------|
B|-9-9-9-9-8-8-8-8-12b-12b-12b-16b-16b-16b(r)--------|
G|---------------------------------------------------|
D|---------------------------------------------------|
A|---------------------------------------------------|
e|---------------------------------------------------|

Lyrics
------

Warm sun, feed me up.
I'm leery, loaded up.
Loathing, for a change,
And I slip some, boil away.
Swallowed, followed.
Heavy about everything but my love.
Swallowed, sorrowed.
I'm with everyone and yet not.
Just wanted to be myself
Hey, you said you'd like to try some.
Hey, you said you'd like to die some.
In the middle of the world on a fishhook.
You're the wave.
Swallowed, borrowed.
Heavy about everything but my love.
Swallowed, hollowed.
Sharp about everyone but yourself.
Swallowed, oh no.
I'm with everyone and yet not.
Piss on, self esteem.
Foward, busted knee.
Sick head, blackened lungs.
And I'm simple, selfish son.
Swallowed, followed.
Heavy about everything but my love.
Swallowed, oh no.
I'm with everyone and yet not.
Got to get away from here,
I miss the one that I love a lot,
I love her.
Date: 10 Jan 1997 18:46:26 -0000
From: Gerald Brisson
These are the corrections to the song Swallowed, the other tab was quite a ways
off. Here is my rendition. This is my first tab.
Douse with Distortion!
Repeat a few times.
----------------------------------------|-----------------------------
----------------------------------------|-----------------------------
---------------6-----------------10-----|-----------------------------
---6--------6---------------10----------|-----------------------------
---6----4---------------8---------------|-----------------------------
---4---------------6/8------------------|-----------------------------

This is the next part where Gavin sings "Swallowed, Followed."
Gavin and Nigel use an effect that mixes a flanger and distortion.
Thats what gives it that neat "wohhhohhoh" sound.
-------------------------------------------------|--------------------
----9--------9-----9-----------------------------|--------------------
---11^------11----11-----10^---10^---10^---10^---|--------------------
-------------------------------------------------|--------------------
-------------------------------------------------|--------------------
-------------------------------------------------|--------------------

Date: Thu, 02 Jan 1997 22:30:56 -0800
From: Robinson
Bush
Swallowed
Verse with distortion:
|----------------------------|
|----------------------------| Thats how I believe the verse part goes
|--------6--6--5--10----10---| you repeat this till Gavin starts singing
|--6-----6--6--5--10----10---| the chorus.
|--6--4--4--4--3--8--8--8----|
|--4-------------------------|

Chorus with distotion:
|----------------|
|----------------| Strum each chord 8 times.. this just the rythm guitar
|----------------| chorus I don't know the lead part so if anyone knows it
|--6--10--11--8--| please send it to me... and I don't have the solo so
|--6--10--11--8--| if anyone knows it send it to me please..
|--4--8---9---6--|

Date: Tue, 14 Jan 1997 06:27:31 -0700
From: hfisher@montana.com
"Swallowed" 3rd track off "Razorblade Suitcase"
By Bush Written by Gavin Rossdale
I saw this tabbed out by Marc Zeitlin , but it
was wrong. Except for the chorus, which I simplified down to power
chords. My tab also has a first guitar part, which is actually what
most of this file is.
-----*****_Guitar_1_*****-----

Intro/Verse
e:----------------------------------------------------
b:----------------------------------------------------
g:--------------------10------------------------10----
d:-6-----8----10---10----10-6-8-11------10---10----10-
a:-6---8---8--10-8----------6-8----11---10-8----------
e:--4-6--------8------------4-6-------9-8------------
e:---------------------------------------------------
b:---------------------------------------------------
g:---------------------10----------------------------
d:--6-----8----10---10----10-6-666-10-10-10-5-5-5-6--
a:--6---8---8--10-8----------6-----------------------
e:--4-6--------8-------------4-----------------------

Chorus
e:----------------9-9-------9---------------------
b:--9(x8)-8(x8)-9-----9---9---9---11-11-----11-11-
g:---------------------10-------10-----10-10------
e:----------------9-------9-----------------
b:--9(x8)-8(x8)-9---9---9---6/11-6-6/11-11--
g:-------------------10---------------------
b:--------------------------------
g:-9-9-9-9-8-8-8-8--8-8-6-6-5-5-1- (x2)
d:--------------------------------

Verse
e:-------------------------------------
b:-------------------------------------
g:-------x-6-6-6-x----------x-10-10-10-
d:-6-6-6-x-6-6-6-x-10-10-10-x-10-10-10-  (x2)
a:-6-6-6-x-4-4-4-x-10-10-10-x-8--8--8--
e:-4-4-4-x-------x-8--8--8--x----------
e:-----------------------
b:-----------------------
g:-------6-6-6--------6~-
d:-6-6-x-6-6-6----6-6-6~-
a:-6-6-x-4-4-4----6-6-4~-
e:-4-4-x----------4-4-4~-

Chorus
e:----------------9-9-------9---------------------
b:--9(x8)-8(x8)-9-----9---9---9---11-11-----11-11- (x3)
g:---------------------10-------10-----10-10------
b:--------------------------------
g:-9-9-9-9-8-8-8-8--8-8-6-6-5-5-1- (x3)
d:--------------------------------

Solo
b:--)-----
g:-9------  Strike the note 24 times, and gradually bend it
e:--------------------------------------------
b:--------------------------------------------
g:-5---5---5/8/9----9----9----9\5-------5/8/9-
d:---6---6-------10---10---10-----6-6-6-------
e:----------------------------------------
b:----------------------------------------
g:----9----9----9/13-13-13-13-12-12-12-12-
d:-10---10---10---------------------------
b:-------------17-17-17-17--------------
g:-17-17-17-17-------------13-13-13-13--
b:------------------------17-----------------
g:-12-12-12-12-17-17-17-17--17\1-------------

Verse
e:----------------------------------------------------
b:----------------------------------------------------
g:--------------------10------------------------10----
d:-6-----8----10---10----10-6-8-11------10---10----10-
a:-6---8---8--10-8----------6-8----11---10-8----------
e:--4-6--------8------------4-6-------9-8------------
e:---------------------------------------------------
b:---------------------------------------------------
g:---------------------10----------------------------
d:--6-----8----10---10----10-6-666-10-10-10-5-5-5-6--
a:--6---8---8--10-8----------6-----------------------
e:--4-6--------8-------------4-----------------------

Same chord pattern as the first, just play very loosly
Chorus
e:----------------9-9-------9---------------------
b:--9(x8)-8(x8)-9-----9---9---9---11-11-----11-11- (x2)
g:---------------------10-------10-----10-10------
b:-------------------------------
g:-9-9-9-9-9-9-9-9-8-8-6-6-5-5-1- (x2)
d:-------------------------------
e:----------------------------------------------pick--
b:---------------------------------------------scrape-
g:-5---5---5/8/9----9----9----9\5-------5/8/9--xxxxx--
d:---6---6-------10---10---10-----6-6-6---------------
b:--------------------------------
g:-9-9-9-9-8-8-8-8--8-8-6-6-5-5-1- (x2)
d:--------------------------------
b:--------------------------------
g:-9-9-9-9-8-8-8-8-13-13-13-17-17-
d:--------------------------------
b:----------------------------------------------------)
g:-9-9-9-9-8-8-8-8-13-13-13-17-17-17-17-17-18-19-20-21-

-fin-
-----*****_Guitar_2_*****-----

Verse
Same as first guitar verse
Chorus
g:-------------------------------
d:-6------10------11------8------
a:-6-(x4)-10-(x4)-11-(x4)-8-(x4)-
e:-4------8-------9-------6------

Second guitar does this whenever it plays
The outro for 2nd guitar, after the 1st guitar's bend on
the 21st fret, is just picking through this:
g:--10--
d:--10--
a:--8---
-fin-
I could be wrong, I could be right, if you don't like it,
tab it yourself.
Timm
Date: Fri, 13 Dec 1996 20:10:50 -0600
From: Deb and Bob Nygren
Here is Swallowed! Intro
 AbDbCEbAbDbCEb
3 ---------6--------------10------------6---------------10--------
4 ---6---6--------10---10----10---6---6---------10---10----10-----
5 -----4-------------8--------------4--------------8--------------
6 -4---------4/8-8--------------4---------4/8-8-------------------

There's two parts to this song... rythym and lead (duh!) I'll tab them
both out. 1 guitar plays rythym while the other plays lead!
2 ----------------------------------------------------14----14----14------------
3 -13-13-13-13-13-13-13-13/12-12-12-12-12-12-12-12\13----13----13---------------
4 -------------------------------------------------------------------13/15-15\--
2 --------
3 --------

 413-15-13
                    Do that two times.  Heres the rythym.
 AbCDbBb
3 -5-5-5-5-5-5-5-5-------------------------10-10-10-10-10-10-10-10\-7-7-7-7-7-7-
4 -6-6-6-6-6-6-6-6/10-10-10-10-10-10-10-10-11-11-11-11-11-11-11-11\-8-8-8-8-8-8-
5 -6-6-6-6-6-6-6-6/10-10-10-10-10-10-10-10/11-11-11-11-11-11-11-11\-8-8-8-8-8-8-
6 -4-4-4-4-4-4-4-4/8--8--8--8--8--8--8--8-/9--9--9--9--9--9--9--9-\-6-6-6-6-6-6-

 37-7-
 8-8-
5 8-8-
 66-6-
         Do the rythym throughout the whole song, just use good timing. And
for the rest of the lead. This part goes on when he sings,"Just wanna be
myself!"
5 -----4-4-4-X-X-----8-8-8-7-----4-4-4-X-X-----8-let ring!----
6 -4-X-----------8-X---------4-X-----------8-X----------------

Go back into the lead/rythem part until he does this
^ ^ ^ ^ ^ ^
3 -9-9-9-9-9-9-9-9-9-9-9-9-9-9-9-9-9-9-9-9-9-9-Bend the hell outa the

string after playing -9- about 15 times. Then the solo.
2 -------4-5---5---5\--------4-5---5---5-/-------------------------13-13/17-17-
3 -1-1/5-----5---5----1-1/5-----5---5------13-13-13-13-12-12-12-12--------------
2 -------------------------13-13-17-17-
3 -13-13-13-13-12-12-12-12----------

The rest is up to you to figure out, but I'll tab out the outro for you.
-0-0-0-
3 -10---------10-------10--------7-------7-7-7-------9----------9---------------
4 -11------11----11-------11-----8-----8-------8-----10------10---10----10--10\0
5 -11---11----------11-------11\-8---8-----------8---10---10---------10-----10\0
6 -9--9--------------------------6-6---------------6/8--8-----------------------

^ ^ ^ ^ ^ ^ ^ ^ ^
6 -4-4-4--4-4-4--4-4-4---and so on. Please E-Mail me with any troubles

which I will correct immediatly.
================================================================================
yoni kaston (kastona@cadvision.com)
@song:Swallowed - Bush (BushX) (Razorblade Suitcase)
Calgary, AB, Canada
(Correction on tab by Marc Zeitlin)
Swallowed
Bush (Canada: Bush X)
transcribed by yoni kaston
This song is really simple, just barre E chords as shown, it's a really
great song and i think you'll enjoy playing it.
Moderately slow, very distorted
Ebarre4 Ebarre9 Ebarre8 Ebarre13 etc.
e--------------------------------------------------------------------------
B--------------------------------------------------------------------------
G--------------------------------------------------------------------------
D-------6----------11-----------10------------15---------6----------11-----
A----6---------11----------10------------15-----------6---------11---------
E-4---------9-----------8------------13------------4---------9-------------

Warm sun feed me up i'm lee - ry
---------------------------------------------------------------------------
---------------------------------------------------------------------------
---------------------------------------------------------------------------
---------10-----------15---------6----------11-----------10----------------
----10------------15----------6---------11----------10-------------15------
-8------------13-----------4---------9-----------8-------------13----------

loa - ded up Loa - thing for a change
Ebarre4
--------------------------------------------------------4--4--4--4---------
--------------------------------------------------------4--4--4--4---------
--------------------------------------------------------5--5--5--5---------
-15------------6----------11-----------10-----------15--6--6--6--6---------
------------6---------11----------10------------15------6--6--6--6---------
---------4---------9-----------8------------13----------4--4--4--4---------

i slip some boil a - way
Ebarre8 Ebarre9
-4--4--4--4--8---8---8---8----8---8---8---8---9---9---9---9----------------
-4--4--4--4--8---8---8---8----8---8---8---8---9---9---9---9----------------
-5--5--5--5--9---9---9---9----9---9---9---9---10--10--10--10---------------
-6--6--6--6--10--10--10--10---10--10--10--10--11--11--11--11---------------
-6--6--6--6--10--10--10--10---10--10--10--10--11--11--11--11---------------
-4--4--4--4--8---8---8---8----8---8---8---8---9---9---9---9----------------

swallowed followed
Ebarre6 etc.
-9---9---9---9----6--6--6--6--6--6--6--6---4--4--4--4---4--4--4--4--8------
-9---9---9---9----6--6--6--6--6--6--6--6---4--4--4--4---4--4--4--4--8------
-10--10--10--10---7--7--7--7--7--7--7--7---5--5--5--5---5--5--5--5--9------
-11--11--11--11---8--8--8--8--8--8--8--8---6--6--6--6---6--6--6--6--10-----
-11--11--11--11---8--8--8--8--8--8--8--8---6--6--6--6---6--6--6--6--10-----
-9---9---9---9----6--6--6--6--6--6--6--6---4--4--4--4---4--4--4--4--8------

heavy 'bout everything but my love swallowed
8---8---8----8---8---8---8---9---9---9---9----9---9---9---9----------------
8---8---8----8---8---8---8---9---9---9---9----9---9---9---9----------------
9---9---9----9---9---9---9---10--10--10--10---10--10--10--10---------------
10--10--10---10--10--10--10--11--11--11--11---11--11--11--11---------------
10--10--10---10--10--10--10--11--11--11--11---11--11--11--11---------------
8---8---8----8---8---8---8---9---9---9---9----9---9---9---9----------------

hollowed i'm with
-6--6--6--6--6--6--6--6---4--4--4--4---8---8---8---8----9---9---9---9------
-6--6--6--6--6--6--6--6---4--4--4--4---8---8---8---8----9---9---9---9------
-7--7--7--7--7--7--7--7---5--5--5--5---9---9---9---9----10--10--10--10-----
-8--8--8--8--8--8--8--8---6--6--6--6---10--10--10--10---11--11--11--11-----
-8--8--8--8--8--8--8--8---6--6--6--6---10--10--10--10---11--11--11--11-----
-6--6--6--6--6--6--6--6---4--4--4--4---8---8---8---8----9---9---9---9------

everyone and yet not i'm with every-
-6--6--6--6---4--4--4--4---8---8---8---8----9---9---9---9----6--6--6--6----
-6--6--6--6---4--4--4--4---8---8---8---8----9---9---9---9----6--6--6--6----
-7--7--7--7---5--5--5--5---9---9---9---9----10--10--10--10---7--7--7--7----
-8--8--8--8---6--6--6--6---10--10--10--10---11--11--11--11---8--8--8--8----
-8--8--8--8---6--6--6--6---10--10--10--10---11--11--11--11---8--8--8--8----
-6--6--6--6---4--4--4--4---8---8---8---8----9---9---9---9----6--6--6--6----

one and yet not i'm with every - one and yet
-4--4--4--4---8---8---8---8----9---9---9---9----6--6--6--6------------r----
-4--4--4--4---8---8---8---8----9---9---9---9----6--6--6--6------------e----
-5--5--5--5---9---9---9---9----10--10--10--10---7--7--7--7------------s----
-6--6--6--6---10--10--10--10---11--11--11--11---8--8--8--8---6--6--6--t----
-6--6--6--6---10--10--10--10---11--11--11--11---8--8--8--8---6--6--6-------
-4--4--4--4---8---8---8---8----9---9---9---9----6--6--6--6---4--4--4-------

not i'm with every - one and yet not
---------------------------------------------------------------------------
---------------------------------------------------------------------------
---------------------------------------------------------------------------
---11--11-----10--10--10--------15--15-----6--6--6--------11--11-----10----
---11--11-----10--10--10--------15--15-----6--6--6--------11--11-----10----
---9---9------8---8---8---------13--13-----4--4--4--------9---9------8-----
---------------------------------------------------------------------------
---------------------------------------------------------------------------
---------------------------------------------------------------------------
10--10---------15--15------6--6--6--------11--11-----10--10--10------------
10--10---------15--15------6--6--6--------11--11-----10--10--10------------
8---8----------13--13------4--4--4--------9---9------8---8---8-------------

just wanted be myself
---------------------------------------------------------------------------
---------------------------------------------------------------------------
---------------------------------------------------------------------------
15--15-----6--6---6------------11--11------10--10--10---------15---15-----6
15--15-----6--6---6------------11--11------10--10--10---------15---15-----6
13--13-----4--4---4------------9---9-------8---8---8----------13---13-----4

hey you said you'd love to try some
---------------------------------------------------------------------------
---------------------------------------------------------------------------
---------------------------------------------------------------------------
6---6------------11--11------10--10--10---------15---15-----6--6---6-------
6---6------------11--11------10--10--10---------15---15-----6--6---6-------
4---4------------9---9-------8---8---8----------13---13-----4--4---4-------

hey you said you'd love to die some in a wo-
---------------------------------------------------------------------------
---------------------------------------------------------------------------
---------------------------------------------------------------------------
----11--11------10--10--10----------15---15-----6--6---6---------------11--
----11--11------10--10--10----------15---15-----6--6---6---------------11--
----9---9-------8---8---8-----------13---13-----4--4---4---------------9---

rld caught on a fish hook you're the wave
----------------------------------------4--4--4--4---4--4--4--4--8---8-----
----------------------------------------4--4--4--4---4--4--4--4--8---8-----
----------------------------------------5--5--5--5---5--5--5--5--9---9-----
-11-----10--10---10--------15---15------6--6--6--6---6--6--6--6--10--10----
-11-----10--10---10--------15---15------6--6--6--6---6--6--6--6--10--10----
-9------8---8----8---------13---13------4--4--4--4---4--4--4--4--8---8-----

you're wave you're the you're the wave swallowed
the wave
8---8----8---8---8---8---9---9---9---9----9---9---9---9--------------------
8---8----8---8---8---8---9---9---9---9----9---9---9---9--------------------
9---9----9---9---9---9---10--10--10--10---10--10--10--10-------------------
10--10---10--10--10--10--11--11--11--11---11--11--11--11-------------------
10--10---10--10--10--10--11--11--11--11---11--11--11--11-------------------
8---8----8---8---8---8---9---9---9---9----9---9---9---9--------------------

followed sharp about
-6--6--6--6--6--6--6--6---4--4--4--4---4--4--4--4--8---8---8---8-----------
-6--6--6--6--6--6--6--6---4--4--4--4---4--4--4--4--8---8---8---8-----------
-7--7--7--7--7--7--7--7---5--5--5--5---5--5--5--5--9---9---9---9-----------
-8--8--8--8--8--8--8--8---6--6--6--6---6--6--6--6--10--10--10--10----------
-8--8--8--8--8--8--8--8---6--6--6--6---6--6--6--6--10--10--10--10----------
-6--6--6--6--6--6--6--6---4--4--4--4---4--4--4--4--8---8---8---8-----------

everyone but your - self swallowed
-8---8---8---8---9---9---9---9----9---9---9---9----6--6--6--6--6--6--6-----
-8---8---8---8---9---9---9---9----9---9---9---9----6--6--6--6--6--6--6-----
-9---9---9---9---10--10--10--10---10--10--10--10---7--7--7--7--7--7--7-----
-10--10--10--10--11--11--11--11---11--11--11--11---8--8--8--8--8--8--8-----
-10--10--10--10--11--11--11--11---11--11--11--11---8--8--8--8--8--8--8-----
-8---8---8---8---9---9---9---9----9---9---9---9----6--6--6--6--6--6--6-----

oh-no i'm with everyone and yet
6---4--4--4--4---8---8---8---8----9---9---9---9----6--6--6--6---4--4--4----
6---4--4--4--4---8---8---8---8----9---9---9---9----6--6--6--6---4--4--4----
7---5--5--5--5---9---9---9---9----10--10--10--10---7--7--7--7---5--5--5----
8---6--6--6--6---10--10--10--10---11--11--11--11---8--8--8--8---6--6--6----
8---6--6--6--6---10--10--10--10---11--11--11--11---8--8--8--8---6--6--6----
6---4--4--4--4---8---8---8---8----9---9---9---9----6--6--6--6---4--4--4----

not i'm with every - one and not
you're
4---8---8---8---8----9---9---9---9----6--6--6--6---4--4--4--4---8---8------
4---8---8---8---8----9---9---9---9----6--6--6--6---4--4--4--4---8---8------
5---9---9---9---9----10--10--10--10---7--7--7--7---5--5--5--5---9---9------
6---10--10--10--10---11--11--11--11---8--8--8--8---6--6--6--6---10--10-----
6---10--10--10--10---11--11--11--11---8--8--8--8---6--6--6--6---10--10-----
4---8---8---8---8----9---9---9---9----6--6--6--6---4--4--4--4---8---8------

i'm with every - one and yet not i'm with
8---8----9---9---9---9----6--6--6--6--------------/----/----/----/---------
8---8----9---9---9---9----6--6--6--6------------/----/----/----/-----------
9---9----10--10--10--10---7--7--7--7----------/----/----/----/-------------
10--10---11--11--11--11---8--8--8--8--------/----/----/----/---------6-----
10--10---11--11--11--11---8--8--8--8------/----/----/----/--------6--------
8---8----9---9---9---9----6--6--6--6----/----/----/----/-------4-----------

every - one and yet Guitar I Solo Piss
---------------------------------------------------------------------------
---------------------------------------------------------------------------
---------------------------------------------------------------------------
--------11-----------10-----------15---------6----------11-----------10----
----11----------10------------15----------6---------11----------10---------
-9-----------8------------13-----------4---------9-----------8-------------

on self es - teem for - ward bus - ted
---------------------------------------------------------------------------
---------------------------------------------------------------------------
---------------------------------------------------------------------------
---------15---------6----------11-----------10------------15---------------
-----15----------6---------11----------10------------15--------------6-----
-13-----------4---------9-----------8------------13---------------4--------

knee Sick head black - ened lungs, i'm simp -
-----------------------------------------4--4--4--4---4--4--4--4--8--------
-----------------------------------------4--4--4--4---4--4--4--4--8--------
-----------------------------------------5--5--5--5---5--5--5--5--9--------
6----------11-----------10-----------15--6--6--6--6---6--6--6--6--10-------
-------11----------10------------15------6--6--6--6---6--6--6--6--10-------
----9-----------8------------13----------4--4--4--4---4--4--4--4--8--------

le, self - ish son swallowed
8---8---8----8---8---8---8---9---9---9---9----9---9---9---9----------------
8---8---8----8---8---8---8---9---9---9---9----9---9---9---9----------------
9---9---9----9---9---9---9---10--10--10--10---10--10--10--10---------------
10--10--10---10--10--10--10--11--11--11--11---11--11--11--11---------------
10--10--10---10--10--10--10--11--11--11--11---11--11--11--11---------------
8---8---8----8---8---8---8---9---9---9---9----9---9---9---9----------------

followed heavy 'bout
-6--6--6--6--6--6--6--6---4--4--4--4---4--4--4--4--8---8---8---8-----------
-6--6--6--6--6--6--6--6---4--4--4--4---4--4--4--4--8---8---8---8-----------
-7--7--7--7--7--7--7--7---5--5--5--5---5--5--5--5--9---9---9---9-----------
-8--8--8--8--8--8--8--8---6--6--6--6---6--6--6--6--10--10--10--10----------
-8--8--8--8--8--8--8--8---6--6--6--6---6--6--6--6--10--10--10--10----------
-6--6--6--6--6--6--6--6---4--4--4--4---4--4--4--4--8---8---8---8-----------

everything but my love swallowed
-8---8---8---8---9---9---9---9----9---9---9---9----6--6--6--6--6--6--6-----
-8---8---8---8---9---9---9---9----9---9---9---9----6--6--6--6--6--6--6-----
-9---9---9---9---10--10--10--10---10--10--10--10---7--7--7--7--7--7--7-----
-10--10--10--10--11--11--11--11---11--11--11--11---8--8--8--8--8--8--8-----
-10--10--10--10--11--11--11--11---11--11--11--11---8--8--8--8--8--8--8-----
-8---8---8---8---9---9---9---9----9---9---9---9----6--6--6--6--6--6--6-----

sorrowed i'm with everyone and yet
6---4--4--4--4---8---8---8---8----9---9---9---9----6--6--6--6---4--4--4----
6---4--4--4--4---8---8---8---8----9---9---9---9----6--6--6--6---4--4--4----
7---5--5--5--5---9---9---9---9----10--10--10--10---7--7--7--7---5--5--5----
8---6--6--6--6---10--10--10--10---11--11--11--11---8--8--8--8---6--6--6----
8---6--6--6--6---10--10--10--10---11--11--11--11---8--8--8--8---6--6--6----
6---4--4--4--4---8---8---8---8----9---9---9---9----6--6--6--6---4--4--4----

not i'm with every - one and yet not
4---8---8---8---8----9---9---9---9----6--6--6--6---4--4--4--4---8---8------
4---8---8---8---8----9---9---9---9----6--6--6--6---4--4--4--4---8---8------
5---9---9---9---9----10--10--10--10---7--7--7--7---5--5--5--5---9---9------
6---10--10--10--10---11--11--11--11---8--8--8--8---6--6--6--6---10--10-----
6---10--10--10--10---11--11--11--11---8--8--8--8---6--6--6--6---10--10-----
4---8---8---8---8----9---9---9---9----6--6--6--6---4--4--4--4---8---8------

i'm with every - one and yet not i'm with
8---8----9---9---9---9----6--6--6--6---4--4--4--4---4--4--4--4-------------
8---8----9---9---9---9----6--6--6--6---4--4--4--4---4--4--4--4-------------
9---9----10--10--10--10---7--7--7--7---5--5--5--5---5--5--5--5-------------
10--10---11--11--11--11---8--8--8--8---6--6--6--6---6--6--6--6-------------
10--10---11--11--11--11---8--8--8--8---6--6--6--6---6--6--6--6-------------
8---8----9---9---9---9----6--6--6--6---4--4--4--4---4--4--4--4-------------

every - one and yet not got to get a-
-8---8---8---8----8---8---8---8----4--4--4--4---4--4--4--4-----------------
-8---8---8---8----8---8---8---8----4--4--4--4---4--4--4--4-----------------
-9---9---9---9----9---9---9---9----5--5--5--5---5--5--5--5-----------------
-10--10--10--10---10--10--10--10---6--6--6--6---6--6--6--6-----------------
-10--10--10--10---10--10--10--10---6--6--6--6---6--6--6--6-----------------
-8---8---8---8----8---8---8---8----4--4--4--4---4--4--4--4-----------------

way from here got to get a - way from heregot to get a-
-8---8---8---8---8---8---8---8---4--4---4--4--4--4---4--4---8---8----------
-8---8---8---8---8---8---8---8---4--4---4--4--4--4---4--4---8---8----------
-9---9---9---9---9---9---9---9---5--5---5--5--5--5---5--5---9---9----------
-10--10--10--10--10--10--10--10--6--6---6--6--6--6---6--6---10--10---------
-10--10--10--10--10--10--10--10--6--6---6--6--6--6---6--6---10--10---------
-8---8---8---8---8---8---8---8---4--4---4--4--4--4---4--4---8---8----------

way from here i miss the one
-8----8----8---8----8---8----4--4--4--4---4--4--4--4-----------------------
-8----8----8---8----8---8----4--4--4--4---4--4--4--4-----------------------
-9----9----9---9----9---9----5--5--5--5---5--5--5--5-----------------------
-10---10---10--10---10--10---6--6--6--6---6--6--6--6-----------------------
-10---10---10--10---10--10---6--6--6--6---6--6--6--6-----------------------
-8----8----8---8----8---8----4--4--4--4---4--4--4--4-----------------------

that i love a - lot miss the
fade
-8---8---8---8---8----9------------6---------------------------------------
-8---8---8---8---8----9------------6---------------------------------------
-9---9---9---9---9----10-----------7---------------------------------------
-10--10--10--10--10---11-----------8---------------------------------------
-10--10--10--10--10---11-----------8---------------------------------------
-8---8---8---8---8----9------------6-----------4--4-----4--4--4-----4------

one that i love a - lot
--------------------------------||
--------------------------------||
--------------------------------||
--------------------------------||
--------------------------------||
4--4-----4--4--4-----4--4--4----||

SWALLOWED
BUSH (X)
Written by: GAVIN ROSSDALE
Off the album: RAZORBLADE SUITCASE
Tabbed by Mike Carignan
http://www.cadvision.com/carignae/mike.html
This is an interesting song. It gets stuck in your head really quick. I
love it. I spent a lot of work TABing this out, so if you would like to
post it anywhere, please notify me first. I intended this to be as
complete as possible, so it's been checked extensively by myself and others.
If you spot ANY errors, please mail me.
Thank you.
Intro/Verse (slight dist.)
 G#C#5C5F5
e|--------------------------------||
B|--------------------------------|| repeat 4 times
G|--5---6----6---5--10--10--------||
D|--6---6--6-----5--10-----10--0--||
A|--6---4--------3---8---------0--||
E|--4-----------------------------||

^^^^^^ ^^^^^
let ring let ring
Chorus (dist.) Background
 G#5C5C#5A#5
e|--------------------||
B|--------------------|| repeats throughout chorus
G|-------5----6-------||
D|--6----5----6----8--||
A|--6----3----4----8--||
E|--4--------------6--||

 G#5C5
e|----------||
B|----------|| last part of chorus
G|-------5--||  (repeats over)
D|--6----5--||
A|--6----3--||
E|--4-------||

Chorus (dist.) Lead
e|----------------------9--------9----||
B|---9--9---8---8---8/9---9----9---9--||
G|--11-11--10--10---------------------||
D|--------------------------11--------||
A|------------------------------------||
E|------------------------------------||

^^^^^^^^^^^^^
bend "G" string
e|----------------------------||
B|------11-11----------11-11--||
G|-8/10-------10--8/10--------||
D|----------------------------||
A|----------------------------||
E|----------------------------||
e|-------------------------------||
B|---9--9---8---8----------------||
G|--11-11--10--10------10/\10-9--||
D|-------------------------------||
A|-------------------------------||
E|-------------------------------||

^^^^^^^^^^^^^ ^^^^
bend "G" string full bend
Solo (part 1)
e|--------------------------||
B|--------------------------||
G|---9^^^^^^^^^^^^----------||
D|--------------------------||
A|--------------------------||
E|--------------------------||

^^^^^^^^^^^^^
keep picking this part, gradual no-bend to full bend
Solo (part 2)
e|-----------------------------------||
B|-----------------4-5---5---5---5---||
G|---1-1-1-1-1/4-5-----5---5---5---5-||  repeat once
D|-----------------------------------||
A|-----------------------------------||
E|-----------------------------------||

Solo (part 3)
e|-------------------------8--8--12--12---||
B|---9--9---8---8---------11-11--15--15---||
G|--11-11--10--10-------------------------||
D|----------------------------------------||
A|----------------------------------------||
E|----------------------------------------||

^^^^^^^^^^^^^^^^^^ ^^^^^^^^^^^^^^
bending of "G" then "B" string
(you'll get it)
Solo (part 4)
e|------------------------------12-12-12------||
B|--9--9---8--8-----13-13-13-13----------13\--||
G|-11-11--10-10-------------------------------||
D|--------------------------------------------||
A|--------------------------------------------||
E|--------------------------------------------||

^^^^^^^^^^^^ ^^^
"G" bend grad. slide down to 1
Chorus 2 (last chorus)
Regular chorus parts, then
-Solo (part 2) (2X)
-last part of chorus
-Solo (part 3) once
-then this variation of Solo (part 3)
e|-------------------------12-12-12-12-12-12-12-13-14-15-16-17/--||
B|---9---9---8---8---13-13---------------------------------------||
G|--11--11--10--10-----------------------------------------------||
D|--11--11--10--10-----------------------------------------------||
A|---------------------------------------------------------------||
E|---------------------------------------------------------------||

^^
continuous bend
Outro
e|--0---0--|-----||
B|--0---0--|-----||
G|--3---5--|-----||
D|--3---5--|--6--||
A|--1---3--|--6--||
E|---------|--4--||

^
This over and over (pulsate 12 times)
Lyrics (as acurate as I could make them)
Warm sun
Feed me up when I'm Leery
Loaded up
Loathing
For a change and I
Slip some
Boil away
Swallowed
Followed
Heavy about everything but my love
Swallowed
Sorrowed
I'm with everyone and yet I'm not
I'm with everyone and yet I'm not
I'm with everyone and yet
Just wanted to be myself
Hey you said you would love to try some
Hey you said you would love to die some
In the middle of a world on a fishhook
You're the wave
You're the wave
You're the wave
Swallowed
Followed
Heavy about everything but my love
Swallowed
Hollowed
Sharp about everyone but youself
Swallowed
Oh no
I'm with everyone and yet I'm not
I'm with everyone and yet I'm not
I'm with everyone and you're not
I'm with everyone and yet
Piss on
Self-esteem and I'm
Foreward
Busted me (?)
Sick head
Blackened lungs and I'm
Simple
Selfeish son
Swallowed
Followed
Heavy about everything but my love
Swallowed
I know
I'm with everyone and yet not
I'm with everyone and yet not
I'm with everyone and yet not
Got to get away from here
Got to get away from here
Got to get away from here
Got to get away from here
Got to get away from here
I miss the one that I love a lot
I miss the one that I love a lot
I miss the one that I love a lot
I love
Thank you for all your feedback.
Mike Carignan From avitale@ibm.net Thu Feb 13 16:48:19 1997
Date: Sun, 09 Feb 1997 21:17:27 -0700
From: avital eisig
To: guitar@olga.net
Subject: swallowed By bush
SWALLOWED by BUSH
THE CHORDS!!!
verse - G# A#m Cm Fm
chorus- G# Cm C# Bb
swallowed... hollowed... I'm with everyone and yet not.
@@@@@@@@@@@@@@@@@@@@@@@@@@@@@@@
@@@@@@@@@@@@@@@@@@@@@@@@@@@@@@@@@@@
@@@@@@@ AVITAL E avitale@ibm.net @@@@@@@
@@@@@@@@@@@@@@@@@@@@@@@@@@@@@@@@@@@
@@@@@@@@@@@@@@@@@@@@@@@@@@@@@@@
|____| |______| |____|
/||\ /||||\\ /||\
oh, that? thats my sheep. you can only see three of its legs because
youre looking at him from his ass.
/ \ / ! !__ __ / !
/__ \ / ! ! /__ !
/_ \_ \ !_ !_ /_ \_ !_____
From meganfischer@revealed.net Fri Feb 28 16:12:24 1997
Date: Sat, 22 Feb 1997 15:19:23 -0600
From: meganfischer
Reply-To: <@revealed.net>
To: guitar@olga.net
Subject: TAB: 'Swallowed' by 'Bush'
(The following text is in the "ISO-8859-1" character set)
(Your display is set for the "US-ASCII" character set)
(Some characters may be displayed incorrectly)
Swallowed, by Bush
transcribed by Steve Fischer
meganfischer@revealed.net
from the album Razorblade Suitcase
I am replying to Marc Zeitlin's transcription of
"Swallowed" by Bush
I was unable to connect to marc's e-mail address
so I thought I'd try submitting to olga
Marc:
I was looking at your transcription of "Swallowed" by
Bush and I thought I'd offer my ideas on the song.
Here's what I figured out from the verse and chorus:
First, I'll show you the chord progression from the
verse. I'll illustrate the chords like this:
example: EADGBE (string configuration)
4 6 6 5 x x
G#major
Verse:
 G#C#
 4665xx                      9 11 11 10 x x
C5 (play 2x) F5/C
8 10 10 x x x 8 8 10 10 x x
On the C# and F5/C chords, I arpeggiate the last two
notes after I strum the chord.
Now for the chorus part: over you're transcribed
chord progression (G# - C5 - C#5 - Bb5) Nigel
Pulsford plays the following: to execute the first
two measures, you will need to play a unison bend
on the G and B strings. The last two bars feature
arpeggiated "double stops, or simply put, a two
note chord, on the B and E strings:
To execute the unison bend, you will bend the note
indicated on the G string intil the pitch matches the
note on the B string:
 G#C5
e  I----------------------------------------------------------------------I
b  I---9--9--9--9--9--9--9--9----8--8----8--8--8---8---8--8---I
g  I-11-11-11-11-11-11-11--10-10-10-10-10-10-10-10-I
d  I----------------------------------------------------------------------I
a  I----------------------------------------------------------------------I
e  I----------------------------------------------------------------------I

 C#5Bb5
e  I--------9-----9---9--9--9--9\sl\-6--6--6--6--6--6--6--6---I
b  I----9------9------9--9--9--9\sl\-6--6--6--6--6--6--6--6---I
g  I---------------------------------------------------------------------I
d  I---------------------------------------------------------------------I
a  I---------------------------------------------------------------------I
e  I---------------------------------------------------------------------I

Then there's Gavin's one note "solo before the solo:"
He plays the E note (9th fret, G string) in 16th note
pattern for two measures. In the second measure,
on the 3rd beat, he starts to slightly bend the note
as he's still playing the 16th note pattern until the
pitch reaches F#:
e  I-------------------------------------------------------------------I
b  I-------------------------------------------------------------------I
g  I--9-9-9-9-9-9-9-9-9-9-9-9-9-9-9-9-9-9-9-9-9-9-9-9I
d  I-------------------------------------------------------------------I
a  I-------------------------------------------------------------------I
e  I-------------------------------------------------------------------I

(start bending here til note is at F# pitch)
e  I------------------------------
b  I------------------------------
g  I--9-9-9-9-9-9-9-9-------
d  I------------------------------
a  I------------------------------
e  I------------------------------

I also know the solo, so if you're interested, e-mail
me at meganfischer@revealed.net and I would be
glad to show it to you. By the way, I don't own a
copy of Razorblade Suitcase, I've just heard the song
on the radio about 50,000 times. I also saw them
perform the song on "Saturday Night Live" a couple
of months ago. Hope to chat with you soon!
FYI: I'm a "rookie" when it comes to e-mail and the
Internet, so let me know if you can't read this or if
you have any questions or comments.
Steve Fischer
Milan, Il
meganfischer@revealed.net
Swallowed
by:BUSH
Album:Razorblade Suitcase
Tabbed by
Lester Melendez
lester7@ix.netcom.com
This is the most comprehensive TAB on the net.
I figured out most of it.
VERSE:(over bass part)
Guitar:1 (Nigel)
e-------------------------------------------------
B-------------------------------------------------
G---------6--6------------6-6---------------------
D---6--6--6--6------6-6---6-6---------------------
A---6--6--4--4------6-6---4-4---------------------
E---4--4------------4-4---------------------------

she said you would..... love to try....... etc...
Chorus:
I did not type out the rythem, but listen to the song and you will get it.
Guitar 1: (Nigel)
e----------------------------------|------------------------------------
B--10---10---10------9----9----9---|--------------14------14-----14-----
G--12---12---12-----11---11---11---|---11/12--12------12------12--------
D---^Full bend on 12 and 11^-------|------------------------------------
A----------------------------------|------------------------------------
E----------------------------------|------------------------------------

Guitar 2: (Gavin)
e--------------------------------
B--------------------------------
G-------5-5--6-6-----------------
D--6-6--5-5--6-6--8-8------------
A--6-6--3-3--4-4--8-8------------
E--4-4------------6-6------------

Solo: IT'S COMPLETE!!!!
Guitar 1: (Nigel) Play Twice
e---0-0-0-0-0-0-0-0-0-------------|------------------------------------------
B---5-5-5-5-5-5-5-5-5-------------|------------------------------------------
G--Gradually Bend ^5^ till Full---|--2-2-2-2/6--9--10--6--10--6-10--6-10--6--
D---------------------------------|------------------------------------------
A---------------------------------|------------------------------------------
E---------------------------------|------------------------------------------
e------------------------------------9--9--9----13-13-13-13------------------
B---10-10-10-10------9--9--9--9-----12-12-12----15-15-15-15/1----------------
G---12-12-12-12-----11-11-11-11-----^Full Bend on 12 and 15^-Slide to 1------
D---^Full Bend on 12 and 11^-------------------------------------------------
A----------------------------------------------------------------------------
E----------------------------------------------------------------------------

Guitar 2: (Gavin)
e--------------------------------
B--------------------------------
G-------5-5--6-6-----------------
D--6-6--5-5--6-6--8-8------------
A--6-6--3-3--4-4--8-8------------
E--4-4------------6-6------------

Verse After Solo:
There are some variations, but here is the gist of it.
e----------------------------------------------------------------------
B----------------------------------------------------------------------
G-------------------5--------------6-----------------------------------
D------6---------------5--------------6-----------8--------------------
A---------6------3--------------4--------------------8-----------------
E---4------------------------------------------6-----------------------

self esteem... sick head blacked lungs.... etc...
That's All Folks
I give anyone full permission to post this on their page as long as I
am credited for it. (please)
Send Comments, Questions, Corrections to lester7@ix.netcom.com


A#5 A#maj Ab Bb Bb5 C C# C#5 C#maj C5 Db Eb F F5 G# G#5 G#maj
variations - click chord images
Transpose chords:
Tuning:
Cool service:
View: Size:
A  A  A
Rating:
Layout:
  • Currently 2/5 Stars.
  • 1
  • 2
  • 3
  • 4
  • 5
 
Accuracy:
  • Currently 0/5 Stars.
  • 1
  • 2
  • 3
  • 4
  • 5
 
click stars to rate
Chordie recommends:
Learn to play guitar with video-based, online guitar lessons at JamPlay.com
Songbook:
Login to add this song to your songbook
Support the artist
Preview/buy this song
MSN Music
Why this non-profit ad?

 
login to add comments/video/corrections