Glycerine

Bush

F |-----|   C |-----|  D |-----|   Eb |-----|

  |-----|     |-----|    |-----|      |-----|

  |-----|     |--5--|    |--7--|      |--3--|

  |--3--|     |--5--|    |--7--|      |--3--|

  |--3--|     |--3--|    |--5--|      |--1--|

  |--1--|     |-----|    |-----|      |-----|


 F-C-D-Eb
          Gavin mutes the strings for a little bit while he is playing each chord.
You don't have to mute the strings, but it sounds a lot better if you do. If
you have even just a little bit of musical talent, you should be able to hear
when he mutes the strings.
========
========
Chorus
 F-C-Eb
        This part is played around the time while he is singing "glycerine", I call
that part the chorus.
========
========
bass guitar enters somewhere in the song and just plays what the guitar is
playing. It just plays the root note of each chord (top note=root note)
========
During the song, there are some chello parts and violin parts or
whatever the instruments are, and I attempted to tab it out for guitar.
I might not be right, so don't hold it against my, I TRIED, so here is
my best shot at it.
key
s=slide
h=hammer on
p=pull off
****************************************************************************
fill #1 goes in right before the 1st line of "don't let the days....."
E |-----------------------------------------------|
B |---12--12s14--14-12--10--9-10--12--14----------|
G |-----------------------------------------------|
D |-----------------------------------------------| (violin parts)
A |-----------------------------------------------|
E |-----------------------------------------------|

also, during this the chello plays the notes of each chord being played by
the lead guitar, if you want, you can play that if you have a another guitar
by simply playing the top note of each chord (just like the bass is doing)
****************************************************************************
fill #2 goes in right before the 2nd line of "don't let the days....."
and is played a couple of times
E |-------------------------------|
B |---12--12--11--9--11--12--14---|
G |-------------------------------| (violin parts)
D |-------------------------------|
A |-------------------------------|
E |-------------------------------|

just like before, there is a chello playing the notes of each chord being
played by the lead, guitar, if you want, you can play that if you have a
third guitar simply be playing the top note each chord
****************************************************************************
fill #3 in this part the guitar and bass stop playing and the violin and the
chello are the only things heard while Gavin is singing some lines that sound
like "bad moon white again" but doesn't make sense and are not listed in the
lyric booklet.
the parts in the parenthesis are the chello parts. If you decide to play
them, you definately need another guitar to play it because the chello and
violen are played at the same time. I'm also not sure if the chello parts
are correct, but once again, it sounds o.k.
E |------------------------------------------------------------------------|
B |---12--11---9------------11h12p11----14-----11--12-------------------12-|
G |------------------------------------------------------------------------|
D |------------------------------------------------------------------------|
A |------------(7--5-4-5-7s5-4-5--2)---------------------------------------|

 E
|----------------------------------------------------(7--5-4-5-7s5-4-5--10)|
E |----------12--11---9--------------------------------------------------|
B |--11---9------------------12--11---9---------11h12p11---14------11--12|
G |----------------------------------------------------------------------|
D |----------------------------------------------------------------------|
A |----------------------------------------------------------------------|
E |----------------------------------------------------------------------|
E |--------------12--11---9----|
B |--12--11---9----------------|
G |----------------------------|
D |----------------------------|
A |----------------------------|
E |----------------------------|

there are other violen and chello parts but they are exactly like or very
slight variations of the ones above. Oh, IF THERE ARE ANY CHANGES OR
CORRECTIONS, PLEASE POST THEM, I COULD HAVE MADE A MISTAKE!!!!!!!!!
********
lyrics:
must be your skin that i'm sinkin in
must be for real cause now i can feel
and i didn't mind
it's not my kind
not my time to wonder why
everything's gone white
and everything's grey
now your here now you away
i don't want this
remember that
i'll never forget where your at
don't let the days go by
glycerine
i'm never alone
i'm alone all the time
are you at one
or do you lie
we live in a wheel
where everyone steals
but when we rise it's like strawberry fields
if i treated you bad
you bruise my face
couldn't love you more
you got a beautiful taste
don't let the days go by
could have been easier on you
I coudn't change though I wanted to
could have been easier by three
our old friend fear and you and me
glycerine (repeat)
don'nt let the days go by
glycerine
I needed you more
when we wanted us less
I could not kiss just regress
it might just be
clear simple and plain
that's just fine
that's just one of my names
don't let the days go by
could've been easier on you
glycerine
********
that is all have fun, great song!
Date: Thu, 07 Dec 95 10:14:24 -0500
From: CoolManIce@aol.com
Subject: Tab UPLOAD Bush Glycerine.
GLYCERINE
Bush
Transcribed by Federico Esparza
=0D
Tablature Explanation
- ---------------------

w whole note
h half note If your going to play
q quarter note the Cello part on =
e eighth note your guitar, tune
s sixteenth note down the low E string
t thirthy-second note to C#. I have tabbed
H dotted half note (hx1.5) the string instruments.
Q dotted quarter note (qx1.5) If you play the violin,
E dotted eighth note (ex1.5) cello or viola and want =
me too tab it in 4 string =
=3D110 tab, E-mail me at CoolmanIce@AOL.com.
I hope you enjoy it. It is very
accurate. If you have any request E-mail me. =
=0D
Intro
e e e e e e e e e e e e e e e e =
E---1--1--1--1--13--13--13--13--13--13--13--13--13--13--13--13--
B---------------------------------------------------------------

=0D
e e e e e e e e
E---13--13--13--13--13--13--13--13--|  =
B-----------------------------------|

=0D
Rhy. Fig 1
E e q s e e E e q s e e E e q s e e E =
E-----------------------------------------------------------------
B-----------------------------------------------------------------
G-----------------------5------5----5--5--7------7------7--7--3---
D---3------3------3--3--5------5----5--5--7------7------7--7--3---
A---3------3------3--3--3---3--3--3----3--5---5--5----5----5--1---
E---1---1--1----1----1--------------------------------------------

=
e q s e e
E-------------------|
B-------------------|
G------3------3--3--|
D------3------3--3--|
A---1--1----1----1--|
E-------------------| =

=0D
Rhy. Fig. 1C
w w w w =
E----------------------------------------------------------------
B----------------------------------------------------------------
G----------------------------------------------------------------
D---Cello--------------------------------------------------------
A--------------------3----------------5----------------1---------
C#--4------------------------------------------------------------

=0D
E----------|
B----------|
G----------|
D----------|
A----------|
E----------|

=0D
Rhy. Fig. 1d
w w w w
G----------------------------------------------------------------
D---Bass---------------------------------------------------------
A--------------------3----------------5----------------1---------
E---1------------------------------------------------------------

=0D
G----------|
D----------|
A----------|
E----------|

=0D
Rhy. Fig. 1v
h s E w q H =
E----------------------------------------------------------------
B----------------------------------------------------------------
G-------------------5-------(5)6---7----------------3----5-------
D----------------------------------------------------------------
A------------------violin----------------------------------------
E----------------------------------------------------------------

=0D
E--------|
B--------|
G--------|
D--------|
A--------|
E--------|

=0D
Rhy. Fig. 2
Q Q q tts e s ttQ =
E----------------------------------------|
B----------------------------------------|
G----------------------555-5--3-333------|
D---3------3------3----555-5--3-333------|
A---3------3------3----333-3--1-111------|
E---1------1------1----------------------|

=0D
Rhy. Fig. 2c
w q h =
E----------------------------------|
B----------------------------------|
G--------cello---------------------|
D----------------------------------|
A--------------------3----1--------|
C#--4------------------------------|

=0D
Rhy. Fig. 2d
w q h
G----------------------------------|
D---Bass---------------------------|
A--------------------3----1--------|
E---1------------------------------|

=0D
Rhy. Fig. 2v
w q h
E----------------------------------|
B---violin & viola-----------------|
G--------------------5----3--------|
D---3------------------------------|
A----------------------------------|
E----------------------------------|

=0D
Rhy. Fig, 1b
Q Q q Q Q q Q Q q Q =
E-----------------------------------------------------------------
B-----------------------------------------------------------------
G----------------------5------5------5----7------7------7----3----
D---3------3------3----5------5------5----7------7------7----3----
A---3------3------3----3------3------3----5------5------5----1----
E---1------1------1-----------------------------------------------

=0D
Q q
E-----------------|
B-----------------|
G-----3------3----|
D-----3------3----|
A-----1------1----|
E-----------------|

=0D
Rhy. Fig. 3
h h h h h h
G---------------------------------------5--------7--------|
D---6--------8--------6--------8--------------------------|
A---------------------------------------------------------|
E---Bass--------------------------------------------------|

=0D
Fill 1 Fill 2
 ssssss
E-------------------|    E----------------3--|
B----------------3--|    B-------------------|
G--------------3----|    G--------------3----|
D------------3------|    D------------3------|
A-------------------|    A-------------------|
E-------------------|    E-------------------|

=0D
Fill 3
e e e e e e e e e e e e e e e e
E---11--11--11--11--11--11--11--11--11--11--11--11--11--11--11--11
B-----------------------------------------------------------------

e e e e e e e e e e e e e e e
E-----11--11--11--11--11--11--11--11--11--11--11--11--11--11--11--
B-----------------------------------------------------------------

e
E---11--|
B-------|

=0D
Fill 4
 ssss
E-----------11-12-11-12-|
B-----------------------|

=0D
Intro
=0D
Rhy. Fig. 1 & 1d (1x) =
=0D
Rhy. Fig. 1, 1b & 1d(1x) with Fill 1 at last measure (A# Chord)
=0D
Rhy. Fig. 1 & 1d (4x)
F C =
must be your skin that i'm sinking in =
D A# w/Fill 2
must be for real cos now i can feel
 FC
    and i didn't mind    i's not my kind    =
 DA#
    not my time         to wonder why  =
=0D
w/Rhy. Fig. 1b (2x)
 FC
    everything's gone white and everything's grey  =
 DA#
    now your her        now your away
w/Fill 3
 FC
    i don't want this    remeber that        =
 DA#
    i'll never forget   where you're at
=0D
Rhy. Fig. 1, 1b, 1c, 1d & 1v (1x)
 FC
                              don't let the
 DA#
    days go         by            Glycerine
=0D
Rhy. Fig. 2 & 2d (2x)
 FCA#
                                  Glycerine
 FCA#
 =0D  
Rhy. Fig. 1 & 1d(4x)
 FC
    i'm never alone     i'm alone all the time
D w/Fill 1 A#
are you at one or do you lie
 FC
    we live in a wheel  where everyone steals
 DA#
    but when rise       it's like strawberry fields
=0D
=0D
Rhy. Fig. 1, 1c & 1d
 FC
    if i treated you bad you bruise my face
 DA#
    couldn't love you more you got a beautiful taste
=0D
Rhy. Fig. 1, 1b, 1c, 1d & 1v (3x)
 FC
                              don't let the
 DA#
    days go         by
 FC
    could have been  easier   on you
 DA#
    I couldn't change    though i wanted to
 FC
    should have been easier   by three =
 DA#
    our old friend   fear and you and me
=0D
Rhy. Fig. 2, 2c, 2d & 2v (2x)
F w/Fill 4 C A#
Glycerine
F w/Fill 4 C A#
Glycerine
Rhy. Fig. 1, 1b, 1c, 1d & 1v (3x)
 FC
                             don't let the
 DA#
    days go         by            Glycerine
 FC
                             don't let the
 DA#
   days go         by--------------------

 FC
- -----------------------------------------

Rhy. Fig 1b Heavy distortion at 3rd measure (D Chord)
 DA#
- -----------------------------------------

Rhy. Fig. 1, 1b w/Hd, 1c, 1d & 1v (2x)
 FC
 =0D 
 DA#
 Glycerine           Glycerine
 FC
 =0D 
 DA#
 Glycerine           Glycerine
=0D
Solo w/Rhy. Fig. 3
s s h s s s s s s s s q h s s s s s s s s h
E---violin-------------------------------------------------------|
B---6-5-3--------------------5-6-5-------------1-3---------------|
G----------------------------------------------------------------|
D----------------3-5-3-2-3-2-0-2-0-------------------------------|
A-------------------Cello-------------0--------------------------|
C#---------------------------------------------3-5-3-2-3-2-0-2-0-|

| bad moon white again bad moon white again |
| | =
| s s s s s s s s s s s s s s s s s s s s s s s s s s s s s s s|
E----------------------------------------------------------------|
B----------------------------------------------------------------|
G----------------------------------------------------------------|
D---5-6-5-6-5-6-5-6-7-8-7-8-7-8-7-8-5-6-5-6-5-6-5-6-7-8-7-8-7-8-7|
A------------------viola-----------------------------------------|
E----------------------------------------------------------------|

=0D
s s h s s h s s h s s H
E-----------------------5-3-1------------------------------------|
B----------6-5-3---------------------6-5-3--------5-6-5----------|
G----------------------------------------------------------------|
D----------------------------------------------------------------|
A----------------------------------------------------------------|
C#---------------------------------------------------------------|

| as she falls around me (see lyrics below) |
| w/Rhy. Fig. 1& 1d (2x) |
| s s s s s s s |
E----------------------------------------------------------------|
B----------------------------------------------------------------|
G-----4-5-4-5-4-5-4-5-6-7-6-7-6-7-6-7----------------------------|
D---8------------------------------------------------------------|
A----------------------------------------------------------------|
E----------------------------------------------------------------|

=0D
=0D
s H s s h e s q =
E-------------------------------5--3-1----|
B---1-3------------6-5-3------------------|
G-----------------------------------------|
D-----------------------------------------|
A-----------------------------------------|
E-----------------------------------------|

=0D
 FC
    i needed you more    when we wanted us less
D A# =
i could not kiss just regress
Begin Rhy. Fig. 1v at second measure (1x)
 FC
    it might just be     clear simple and plain
 DA#
    that's just fine    that's just one of my names
Rhy. Fig.1, 1d, & 1c
 FC
                             don't let the
 DA#
    days go         by
Rhy. Fig. 1, 1c, 1d & 1v
F C =
could have been easier on =
 DA#
 you     you         you          Glycerine
Rhy. Fig. 2, 2c, 2d & 2v (3x)
 FCA#
                                  Glycerine
F w/Fill 4 C A#
Glycerine
 FCA#
                                  Glycerine
 FCA#CF
 =0D    
Outro
h H h H h H =
E----------------------------------------------------------------
B---Cello & Viola & Violin---------------------------------------
G----------------------------------------------------------------
D---8--------5------------6--------3------------4--------1-------
A----------------------------------------------------------------
E----------------------------------------------------------------

=
h H h (H) H
E------------------------------------(15)-------------|
B-----------------------------------------------------|
G-----------------------------------------------------|
D---------6--------3------------4--------1------------|
A-----------------------------------------------------|
E-----------------------------------------------------|=

=========================
GLYCERINE
Bush
Transcribed by Federico Esparza
=0D
Tablature Explanation
---------------------

w whole note
h half note If your going to play
q quarter note the Cello part on =
e eighth note your guitar, tune
s sixteenth note down the low E string
t thirthy-second note to C#. I have tabbed
H dotted half note (hx1.5) the string instruments.
Q dotted quarter note (qx1.5) If you play the violin,
E dotted eighth note (ex1.5) cello or viola and want =
me too tab it in 4 string =
=3D110 tab, E-mail me at CoolmanIce@AOL.com.
I hope you enjoy it. It is very
accurate. If you have any request E-mail me. =
=0D
Intro
e e e e e e e e e e e e e e e e =
E---1--1--1--1--13--13--13--13--13--13--13--13--13--13--13--13--
B---------------------------------------------------------------

=0D
e e e e e e e e
E---13--13--13--13--13--13--13--13--|  =
B-----------------------------------|

=0D
Rhy. Fig 1
E e q s e e E e q s e e E e q s e e E =
E-----------------------------------------------------------------
B-----------------------------------------------------------------
G-----------------------5------5----5--5--7------7------7--7--3---
D---3------3------3--3--5------5----5--5--7------7------7--7--3---
A---3------3------3--3--3---3--3--3----3--5---5--5----5----5--1---
E---1---1--1----1----1--------------------------------------------

=
e q s e e
E-------------------|
B-------------------|
G------3------3--3--|
D------3------3--3--|
A---1--1----1----1--|
E-------------------| =

=0D
Rhy. Fig. 1C
w w w w =
E----------------------------------------------------------------
B----------------------------------------------------------------
G----------------------------------------------------------------
D---Cello--------------------------------------------------------
A--------------------3----------------5----------------1---------
C#--4------------------------------------------------------------

=0D
E----------|
B----------|
G----------|
D----------|
A----------|
E----------|

=0D
Rhy. Fig. 1d
w w w w
G----------------------------------------------------------------
D---Bass---------------------------------------------------------
A--------------------3----------------5----------------1---------
E---1------------------------------------------------------------

=0D
G----------|
D----------|
A----------|
E----------|

=0D
Rhy. Fig. 1v
h s E w q H =
E----------------------------------------------------------------
B----------------------------------------------------------------
G-------------------5-------(5)6---7----------------3----5-------
D----------------------------------------------------------------
A------------------violin----------------------------------------
E----------------------------------------------------------------

=0D
E--------|
B--------|
G--------|
D--------|
A--------|
E--------|

=0D
Rhy. Fig. 2
Q Q q tts e s ttQ =
E----------------------------------------|
B----------------------------------------|
G----------------------555-5--3-333------|
D---3------3------3----555-5--3-333------|
A---3------3------3----333-3--1-111------|
E---1------1------1----------------------|

=0D
Rhy. Fig. 2c
w q h =
E----------------------------------|
B----------------------------------|
G--------cello---------------------|
D----------------------------------|
A--------------------3----1--------|
C#--4------------------------------|

=0D
Rhy. Fig. 2d
w q h
G----------------------------------|
D---Bass---------------------------|
A--------------------3----1--------|
E---1------------------------------|

=0D
Rhy. Fig. 2v
w q h
E----------------------------------|
B---violin & viola-----------------|
G--------------------5----3--------|
D---3------------------------------|
A----------------------------------|
E----------------------------------|

=0D
Rhy. Fig, 1b
Q Q q Q Q q Q Q q Q =
E-----------------------------------------------------------------
B-----------------------------------------------------------------
G----------------------5------5------5----7------7------7----3----
D---3------3------3----5------5------5----7------7------7----3----
A---3------3------3----3------3------3----5------5------5----1----
E---1------1------1-----------------------------------------------

=0D
Q q
E-----------------|
B-----------------|
G-----3------3----|
D-----3------3----|
A-----1------1----|
E-----------------|

=0D
Rhy. Fig. 3
h h h h h h
G---------------------------------------5--------7--------|
D---6--------8--------6--------8--------------------------|
A---------------------------------------------------------|
E---Bass--------------------------------------------------|

=0D
Fill 1 Fill 2
 ssssss
E-------------------|    E----------------3--|
B----------------3--|    B-------------------|
G--------------3----|    G--------------3----|
D------------3------|    D------------3------|
A-------------------|    A-------------------|
E-------------------|    E-------------------|

=0D
Fill 3
e e e e e e e e e e e e e e e e
E---11--11--11--11--11--11--11--11--11--11--11--11--11--11--11--11
B-----------------------------------------------------------------

e e e e e e e e e e e e e e e
E-----11--11--11--11--11--11--11--11--11--11--11--11--11--11--11--
B-----------------------------------------------------------------

e
E---11--|
B-------|

=0D
Fill 4
 ssss
E-----------11-12-11-12-|
B-----------------------|

=0D
Intro
=0D
Rhy. Fig. 1 & 1d (1x) =
=0D
Rhy. Fig. 1, 1b & 1d(1x) with Fill 1 at last measure (A# Chord)
=0D
Rhy. Fig. 1 & 1d (4x)
F C =
must be your skin that i'm sinking in =
D A# w/Fill 2
must be for real cos now i can feel
 FC
    and i didn't mind    i's not my kind    =
 DA#
    not my time         to wonder why  =
=0D
w/Rhy. Fig. 1b (2x)
 FC
    everything's gone white and everything's grey  =
 DA#
    now your her        now your away
w/Fill 3
 FC
    i don't want this    remeber that        =
 DA#
    i'll never forget   where you're at
=0D
Rhy. Fig. 1, 1b, 1c, 1d & 1v (1x)
 FC
                              don't let the
 DA#
    days go         by            Glycerine
=0D
Rhy. Fig. 2 & 2d (2x)
 FCA#
                                  Glycerine
 FCA#
 =0D  
Rhy. Fig. 1 & 1d(4x)
 FC
    i'm never alone     i'm alone all the time
D w/Fill 1 A#
are you at one or do you lie
 FC
    we live in a wheel  where everyone steals
 DA#
    but when rise       it's like strawberry fields
=0D
=0D
Rhy. Fig. 1, 1c & 1d
 FC
    if i treated you bad you bruise my face
 DA#
    couldn't love you more you got a beautiful taste
=0D
Rhy. Fig. 1, 1b, 1c, 1d & 1v (3x)
 FC
                              don't let the
 DA#
    days go         by
 FC
    could have been  easier   on you
 DA#
    I couldn't change    though i wanted to
 FC
    should have been easier   by three =
 DA#
    our old friend   fear and you and me
=0D
Rhy. Fig. 2, 2c, 2d & 2v (2x)
F w/Fill 4 C A#
Glycerine
F w/Fill 4 C A#
Glycerine
Rhy. Fig. 1, 1b, 1c, 1d & 1v (3x)
 FC
                             don't let the
 DA#
    days go         by            Glycerine
 FC
                             don't let the
 DA#
   days go         by--------------------

 FC
-----------------------------------------

Rhy. Fig 1b Heavy distortion at 3rd measure (D Chord)
 DA#
-----------------------------------------

Rhy. Fig. 1, 1b w/Hd, 1c, 1d & 1v (2x)
 FC
 =0D 
 DA#
 Glycerine           Glycerine
 FC
 =0D 
 DA#
 Glycerine           Glycerine
=0D
Solo w/Rhy. Fig. 3
s s h s s s s s s s s q h s s s s s s s s h
E---violin-------------------------------------------------------|
B---6-5-3--------------------5-6-5-------------1-3---------------|
G----------------------------------------------------------------|
D----------------3-5-3-2-3-2-0-2-0-------------------------------|
A-------------------Cello-------------0--------------------------|
C#---------------------------------------------3-5-3-2-3-2-0-2-0-|

| bad moon white again bad moon white again |
| | =
| s s s s s s s s s s s s s s s s s s s s s s s s s s s s s s s|
E----------------------------------------------------------------|
B----------------------------------------------------------------|
G----------------------------------------------------------------|
D---5-6-5-6-5-6-5-6-7-8-7-8-7-8-7-8-5-6-5-6-5-6-5-6-7-8-7-8-7-8-7|
A------------------viola-----------------------------------------|
E----------------------------------------------------------------|

=0D
s s h s s h s s h s s H
E-----------------------5-3-1------------------------------------|
B----------6-5-3---------------------6-5-3--------5-6-5----------|
G----------------------------------------------------------------|
D----------------------------------------------------------------|
A----------------------------------------------------------------|
C#---------------------------------------------------------------|

| as she falls around me (see lyrics below) |
| w/Rhy. Fig. 1& 1d (2x) |
| s s s s s s s |
E----------------------------------------------------------------|
B----------------------------------------------------------------|
G-----4-5-4-5-4-5-4-5-6-7-6-7-6-7-6-7----------------------------|
D---8------------------------------------------------------------|
A----------------------------------------------------------------|
E----------------------------------------------------------------|

=0D
=0D
s H s s h e s q =
E-------------------------------5--3-1----|
B---1-3------------6-5-3------------------|
G-----------------------------------------|
D-----------------------------------------|
A-----------------------------------------|
E-----------------------------------------|

=0D
 FC
    i needed you more    when we wanted us less
D A# =
i could not kiss just regress
Begin Rhy. Fig. 1v at second measure (1x)
 FC
    it might just be     clear simple and plain
 DA#
    that's just fine    that's just one of my names
Rhy. Fig.1, 1d, & 1c
 FC
                             don't let the
 DA#
    days go         by
Rhy. Fig. 1, 1c, 1d & 1v
F C =
could have been easier on =
 DA#
 you     you         you          Glycerine
Rhy. Fig. 2, 2c, 2d & 2v (3x)
 FCA#
                                  Glycerine
F w/Fill 4 C A#
Glycerine
 FCA#
                                  Glycerine
 FCA#CF
 =0D    
Outro
h H h H h H =
E----------------------------------------------------------------
B---Cello & Viola & Violin---------------------------------------
G----------------------------------------------------------------
D---8--------5------------6--------3------------4--------1-------
A----------------------------------------------------------------
E----------------------------------------------------------------

=
h H h (H) H
E------------------------------------(15)-------------|
B-----------------------------------------------------|
G-----------------------------------------------------|
D---------6--------3------------4--------1------------|
A-----------------------------------------------------|
E-----------------------------------------------------|=



A# C D E F
variations - click chord images
Transpose chords:
Tuning:
Cool service:
View: Size:
A  A  A
Rating:
Layout:
  • Currently 3/5 Stars.
  • 1
  • 2
  • 3
  • 4
  • 5
 
Accuracy:
  • Currently 3.4/5 Stars.
  • 1
  • 2
  • 3
  • 4
  • 5
 
click stars to rate
Chordie recommends:
Learn to play songs at Jamplay.com with video guitar lessons
Songbook:
Login to add this song to your songbook
Support the artist
Preview/buy this song
MSN Music
Why this non-profit ad?

 
login to add comments/video/corrections