Guitar Tabs, Chords and Lyrics
Major upgrade!! After one year development the new version of Chordie is now online! Please give feedback.


Turn! Turn! Turn! (To Everything There Is a Season)    Byrds


E|----------------------------------------------------------------||

B|----------------------------------------------------------------||

G|------0-2-(2)-0-(0)--------------------4-2-(2)-0-(0)--------------||

D|--0-4-------------4-(4)-2--------0-4--------------4-(4)-2--------||

A|-0--------------------------------------------------------------||

E|----------------------------------------------------------------||

E|----------------------------------------------------------------||

B|----------------------------------------------------------------||

G|-----4-4-4-2-0-------------------------7-7-7-6-7-9-7-7---------||

D|---------------4--2-4-2-4-2-0-2-0-0----------------------------||

A|----------------------------------------------------------------||

E|----------------------------------------------------------------||

E|----------------------------------------------------------------||

B|----------------------------------------------------------------||

G|--7-7-6-6-9-9-11-11-11-9-7-6-7-9-7-7-11-9-7-6-7-9-7-7---------||

D|----------------------------------------------------------------||

A|----------------------------------------------------------------||

E|----------------------------------------------------------------||

E|----------------------------------------------------------------||

B|----------------------------------------------------------------||

G|-11-9-7-6-6-4-4-2-0---------------------------------------------||

D|---------------------4-5-4-2-4-2-0------------------------------||

A|----------------------------------------------------------------||

E|----------------------------------------------------------------||



Important: The song above is NOT stored on the Chordie server. The original song is hosted at www.xguitar.com. Chordie works as a search engine and provides on-the-fly formatting. Chordie does not index songs against artists'/composers' will. To remove this song please click here.

This song is displayed as text-only. Transposing and tuning is only available for chordpro-songs.
Rate #0 of 0 versions

Login - add to songbook

SHARE PAGE  




You need to log in to post comments

All1Song (report video to admin):
This video is using the chords on this page to play the song. Hope it helps you get a feel for playing it solo acoustic.
ERROR: If you can see this, then YouTube is down or you don't have Flash installed.