"yes"; ?> Hacksaw Decapitation by Cannibal Corpse - guitar chords, guitar tabs and lyrics - chordie

Hacksaw Decapitation

Cannibal Corpse


Band: Cannibal Corpse Album: Bloodthirst Song: Hacksaw Decapitation
Copyright (c) Metal Blade (2002) Version 1.0 - 02/12/2004
Transcribed By: Marino Manarin Email: mmmfbrutal@uol.com.br
. - palm mute / - slide up to \ - slide down to ~ - vibrato h - hammer on b - Bend p - pull off Suffixes for bend t - tap f - full bend h - half bend ph - pinched harmonic q - quarter bend t - tap bend * - see comment ^ - Hold bend r release bend x - Stuccatto ~ - vibrato bend , - slight palm mute () - ghost note, sustained note " - tremolo note <> - Trill
Tunning Bb.
Triplets
Riff1 |-----------------------------------------------------------------------| |-----------------------------------------------------------------------| |-----------------------------------------------------------------------| |-3*-------3*-------3*-----------------3*-------3*-------3*-------------| |----4*-3*----4*-3*----4*-3*-2*-4*-5*-----4*-3*----4*-3*----4*-3*-2*-1*-| |-----------------------------------------------------------------------|
|-----------------------------------------------------------------------| |-----------------------------------------------------------------------| |-----------------------------------------------------------------------| |-3*-------3*-------3*-----------------3*-------3*-------3*-------------| |----4*-3*----4*-3*----4*-3*-2*-4*-5*-----4*-3*----4*-3*----4*-3*-2*-1*-| |-----------------------------------------------------------------------|
Riff2 |-------------------------------------------------------------------------| |-------------------------------------------------------------------------| |-------------------------------------------------------------------------| |-3-----------3-----------3-----------------------3-----------3-----------| |---0-4-0-3-0---0-4-0-3-0---0-4-0-3-0-2-0-4-0-5-0---0-4-0-3-0---0-4-0-3-0-| |-------------------------------------------------------------------------|
|---------------------------------------------------------------------| |---------------------------------------------------------------------| |---------------------------------------------------------------------| |-3-------------------3-----------3-----------3-----------------------| |---0-4-0-3-0-2-0-1-0---0-4-0-3-0---0-4-0-3-0---0-4-0-3-0-2-0-4-0-5-0-| |---------------------------------------------------------------------|
|-----------------------------------------------| |-----------------------------------------------| |-----------------------------------------------| |-3-----------3-----------3---------------------| |---0-4-0-3-0---0-4-0-3-0---0-4-0-3-0-3-0-2-0-1-| |-----------------------------------------------|
Riff3 |----------------------------------------------------------------| |----------------------------------------------------------------| |--------6h7p6h7p6--------5h6p5h6p5--------6h7p6h7p6---------7-6-| |----5-8--------------4-7--------------5-8-----------3-----------| |-5"---------------4"---------------5"-----------------0-3-5-----| |----------------------------------------------------------------| . . . . . . |---------------------------------------------------------------| |---------------------------------------------------------------| |--------6h7p6h7p6--------5h6p5h6p5--------6h7p6h7p6------7-----| |----5-8--------------4-7--------------5-8-----------4-44---6---| |-5"---------------4"---------------5"---------------4-44-----4-| |---------------------------------------------------------------| . . . . . . .. |----------------------------------------------------------------| |----------------------------------------------------------------| |--------6h7p6h7p6--------5h6p5h6p5--------6h7p6h7p6---------7-6-| |----5-8--------------4-7--------------5-8-----------3-----------| |-5"---------------4"---------------5"-----------------0-3-5-----| |----------------------------------------------------------------| . . . . . . |---------------------------------------------------------------| |---------------------------------------------------------------| |--------6h7p6h7p6--------5h6p5h6p5--------6h7p6h7p6------7-----|
|----5-8--------------4-7--------------5-8-----------4-44---6---| |-5"---------------4"---------------5"---------------4-44-----4-| |---------------------------------------------------------------| . . . . . . ..
Repeat Riff1 Repeat Riff2 Repear Riff3
Riff4 |----------------------| |----------------------| |----------------------| |-9----10----14/----10-| |-7----10--------------| |-7----8-----12/----8--|
Riff5 |------------------------------------------------------------------------| |------------------------------------------------------------------------| |------------------------------------------------------------------------| |---------------333--------5---8---5-----333-----------------------------| |-5-0-6-0-3---------4-3--7---7---7---7-------4-3-7-4-0-6-0-3-0-5-0-6-0-3-| |-----------770------------------------9---------------------------------|
|---------------------------------------------------|
|---------------------------------------------------| |---------------------------------------------------| |-----333--------5---8---5------333-----------------| |---------4-3--7---7---7---7--------4-3-7-4-0-6-0-3-| |-770------------------------9----------------------|
|---------------------------------------------------------------------| |---------------------------------------------------------------------| |---------------------------------------------------------------------| |-----333--------5---8---5------333---------------------------------4-| |---------4-3--7---7---7---7--------4-3-7-4-0-6-0-3-0-5-0-6-0-3-0-3---| |-770------------------------9----------------------------------------|
Riff6 |-----------------------------------------------------| |-----------------------------------------------------| |-----------------------------------------------------| |-------2-3-----4-------3-4-------3-4---------------4-| |-----3-----2-3---3---4---------------3-4---------3---| |-222---------------2-------1-3-2---------3-4-2h3-----|
|---------------------------------------------| |---------------------------------------------| |---------------------------------------------| |-------2-3-----4-------3-4-------3-4---------| |-----3-----2-3---3---4---------------3-4-----| |-222---------------2-------1-3-2---------3-4-|
Riff7 |-------------------------------------------------| |-------------------------------------------------| |-------------------------------------------------| |-5--5-5-5-5-5--7\8------------------4-3--3-3-3-3-| |-5--5-5-5-5-5--7\8------------------4-3--3-3-3-3-| |-3--3-3-3-3-3------6-6-6-6-6-6-6-6--2-1--1-1-1-1-|
|-------------------------------------------------------------------| |-------------------------------------------------------------------| |---------1111-----------------1313---------------------------------| |----1010------1010-------1111-------------------------4-3--3-3-3-3-| |-99----------------99-88-----------1212------1111-----4-3--3-3-3-3-| |----------------------------------------1111------99--2-1--1-1-1-1-|
|--------------------------------|----------Guitar-2----------| |--------------------------------|----------------------------| |--------------------------------|----------------------------| |-7\8-----------------4-3--pause-|----55---------3344------55-| |-7\8-----------------4-3--------|-22---------22------3344----| |-----6-6-6-6-6-6-6-6-2-1--------|-------3322-----------------|
|------------------------------------------------| |------------------------------------------------| |------------------------------------------------| |-4-3--3-3-3-3--7\8-----------------4-3--3-3-3-3-| |-4-3--3-3-3-3--7\8-----------------4-3--3-3-3-3-| |-2-1--1-1-1-1------6-6-6-6-6-6-6-6-2-1--1-1-1-1-|
|-----------------------------------------------------| |-----------------------------------------------------| |---------1111-----------------1313-------------------| |----1010------1010-------1111------------------------| |-99----------------99-88-----------1212------1111----| |----------------------------------------1111------99-|
Riff8 (Pat O'Brien Solo) |-------------------------------------------------------------| |-------------------------------------------------------------| |-------------------------------------------------------------| |-------------------------------------------------------------| |-4-4-4-4-4-4-4-4-7-----------------------7-7-7-7-7-7-7-7-4-3-| |-------------------5-3-3-3-3-3-3-3-3-2-1---------------------|
|-------------------------------------------------------------| |-------------------------------------------------------------| |-------------------------------------------------------------| |-----------------3-------------------------------------------| |-2-2-2-2-2-2-2-2---6-5-5-5-5-5-5-5-5-3-2-----------------1-0-| |-----------------------------------------3-3-3-3-3-3-3-3-----|
|-------------------------------------------------------------| |-------------------------------------------------------------| |-------------------------------------------------------------| |-------------------------------------3-----------------------| |-----------------6-3-2-2-2-2-2-2-2-2---6-5-5-5-5-5-5-5-5-6-3-| |-2-2-2-2-2-2-2-2---------------------------------------------|
|-------------------------------------------------------------| |-------------------------------------------------------------| |-------------------------------------------------------------| |-----------------6-3-2-2-2-2-2-2-2-2---------------------3---| |-2-2-2-2-2-2-2-2---------------------6-3-2-2-2-2-2-2-2-2---6-| |-------------------------------------------------------------|
|---------------------------------------------------------| |---------------------------------------------------------| |---------------------------------------------------------| |---------------------------------------------------------| |-5-5-5-5-5-5-5-5-3-2-----------------1-0-----------------| |---------------------3-3-3-3-3-3-3-3-----2-2-2-2-2-2-2-2-|
Repeat Riff1 Repeat Riff3
Ending... |----------------| |----------------| |---------7-6----| |-3------------7-| |---0-3-5------5-| |--------------5-|
End.








variations - click chord images
Transpose chords:
Tuning:
Cool service:
View: Size:
A  A  A
Rating:
Layout:
  • Currently 0/5 Stars.
  • 1
  • 2
  • 3
  • 4
  • 5
 
Accuracy:
  • Currently 2.6/5 Stars.
  • 1
  • 2
  • 3
  • 4
  • 5
 
click stars to rate
Chordie recommends:
Check out these online guitar lessons
Songbook:
Login to add this song to your songbook
Support the artist
Preview/buy this song
MSN Music
Why this non-profit ad?

 
login to add comments/video/corrections