Guitar Tabs, Chords and Lyrics


Meat Hook Sodomy    Cannibal Corpse



CANNIBAL CORPSE - MEAT HOOK SODOMY
I SEEN THE OTHER TAB ON HERE FOR THIS SONG AND DIDN'T REALLY LIKE IT...THEN I FOUND THIS ONE AND LIKED IT BETTER.  TUNE DOWN 1/2 STEP



   |--------------------------------|
   |--------------------------------|                      riff A x 8
   |--------------------------------|                      riff B x 8
   |--------------------------------|  riff A              riff A x 4
   |6h7----10p9----8h9------10h1112-|                      riff C x 4
   |----00------00------00----------|                      riff D x 4
                                                           riff C x 4
                                                           riff D x 4
   |----------------------------|                          riff A x 8
   |----------------------------|                          riff E x 5
   |----------------------------|                          riff F x 8
   |----------------------------|   riff B                 riff G x 4
   |3------5------4-------------|                          riff G+H x 4
   |1-0000-3-0000-2-0000-343-45-|                          riff G+I x 2
                          hp  h                            riff H+I x 1
                                                           riff H x 1
                                                           riff G x 4
                                                           riff J x 1
   |--------------------------------|                      riff JJ x 6
   |--------------------------------|                      riff E x 4
   |--------------------------------|                      riff K x 4
   |2-------5-------3---------------|  riff C              riff B x 2
   |2-------5-------3-------4\\5-3\\4-|                      riff A x 2
   |0-0-0-0-3-0-0-0-1-0-0-0-2\\3-1\\2-|                      riff B,A,B,A,B,BB,B,BB


   |--------------------------------|
   |--------------------------------|
   |--------------------------------|
   |--------------------------------|  riff D
   |--9-6-----8-5-----7-4-----6-3---|
   |0-7-4-0-0-6-3-0-0-5-2-0-0-4-1-0-|


   |--------------------------------|---------------------------------|
   |--------------------------------|---------------------------------|
   |--------------------------------|---------------------------------|
   |--------------------------------|---------------------------------|  riff e
   |--------------------------------|---------------------------------|
   |33336666000033332222555511114444|33336666000033331111444422225555-|

    riff E is played 3 different ways, varying the length of each note



   |--------------------|
   |--------------------|
   |--------------------|
   |--------------------|  riff F
   |--------------------|
   |0000---6-5-3-232323-|
                  h h h



   |---------------------------|
   |---------------------------|
   |---------------------------|
   |---------------------------|  riff G(triplet feel)
   |543543---432432---321321-3-|
   |------543------432-------1-|
#cutline#ect..


   |--------------|--------------|---------|
   |--------------|--------------|---------|
   |--------------|--------------|---------|
   |-7------------|-6------------|---------|  riff H
   |-5------------|-4------------|321321-3-|
   |-5------------|-4------------|-------1-|


   |----------------------------------|
   |----------------------------------|
   |----------------------------------|
   |----------------------------------|   riff I(guitar 2)
   |--------------------------------3-|
   |000-000-000-000-000-000-000-000-1-|



   |-------------------------------|
   |-------------------------------|
   |-------------------------------|
   |-------------------------------|   riff J
   |------------------4----------4-|
   |5555564444453333342------4-5---|




   |--------------------------|
   |--------------------------|
   |--------------------------|
   |------------------------4-|  riff JJ
   |--------------------4-5---|
   |5555564444453333342-------|


   |-----------------------|
   |-----------------------|
   |-----------------------|
   |-----------------------|  riff K
   |-----------------------|
   |000000----8-7-5-454545-|
    (snare)         h h h


   |-------------------------------------|
   |-------------------------------------|
   |-------------------------------------|
   |-------------------------------------|  riff BB
   |3------5------4------8h9----10h1112--|


Important: The song above is NOT stored on the Chordie server. The original song is hosted at www.xguitar.com. Chordie works as a search engine and provides on-the-fly formatting. Chordie does not index songs against artists/composers will. To remove this song please click here.

This song is displayed as text-only. Transposing and tuning is only available for chordpro-songs.

Login - add to songbook

Rating click stars to rate

Layout
Accuracy

SHARE PAGE  




You need to log in to post comments