Guitar Tabs, Chords and Lyrics


Addicted to Vaginal Skin    Cannibal Corpse



Tuning Eb
Addicted To Vaginal Skin
========================
All Riffs are either correct or very close.
Some might be off more than others but
atleat this gives you an idea of all the riffs.


Intro         Intro A
|-----------| |----------|
|-----------| |----------|
|-----------| |-----3----|
|-2---1-----| |-2---1----|
|-------3-2-| |-------3-2|
|---0-------| |---0------|

Riff 1
|-----------------|---------------------|
|-----------------|---------------------|
|-----------------|---------------------|
|-----------------|---------------------|
|-----------------|---------------------|
|-000-000-000-000-|-6300-5300-3200-2100-|

Riff 2
|----------------|
|----------------|
|----------------|
|----------------|
|----------------|
|-2-2-2-2-2-2-3-0|


Chorus
|-------------------|-----------------|
|-------------------|-----------------|
|-------------------|-----------------|
|-22222222----------|-------------3h6-|
|----------11111111-|-1h4-2h5-3h6-----|
|-------------------|-----------------|

Riff 3       Riff4
|----------| |-----------------------|
|----------| |-----------------------|
|----------| |-----------------------|
|----------| |------------2-1--------|
|-222-2-2-2| |-2-------------11111111|
|-000-0-0-0| |--3-00000000-0---------|
PM... . . .  PM   ........ . ........

Riff 5
|------------------------|
|------------------------|
|------------------------|
|------------------------|
|-2-----------2--11111111|
|--3-00000000--3---------|
 PM  ........    ........

Riff 6
|---------------------------------|
|---------------------------------|
|-5^2---2-------------------------|
|-----3-----------5^2---2---------|
|---------------------3---11111111|
|--------00000000-----------------|


Put Together:

Intro, 8 times

Intro A, 4 times

Repeat 2 times: Riff1, 4 times, Riff2, 16 times

Bass Solo
~~~~~~~~~

Chorus, 6 times

Riff1, 2times

Riff2, 8times

Riff3, 4times

Intro, 8 times

IntroA, 8 times

Riff4, 4 times

Chorus, 6 times

First measure of riff 1 then
Riff3, 4 times

(Lead)

Rhythm with lead
Riff5, 8 times

Riff6, 4 times

Chorus, 4 times

E5 abrupt finish

I did my best, now get out there and kick some ass!!!!
(Don Schaberg)

/---------------------------------------------------------------------------

Matt
tuning Eb
Addicted To Vaginal Skin
========================
(ode to Arthur Shawcross)

It's next to impossible to hear exactly what's going on, so find Chris
Barnes, get a drummer to blast away, and it might be somewhat close.
Maybe.

Intro (cool 5/8 thing):
|-----------|  The 5th-8th times, the Eb is played as Eb5 (x11xxx)
|-----------|  Really P.M. the C B - (5) 3fr. 2fr.  This isn't right,
|-----------|  I don't think, but it's similar.
|-2---1-----|
|-------3-2-|
|---0-------|

Verse:  (again, really PM to make it impossible to hear the notes!)
|-----------------|---------------------|
|-----------------|---------------------|
|-----------------|---------------------|
|-----------------|---------------------|
|-----------------|---------------------|
|-000-000-000-000-|-6300-5300-3200-2100-|
  sse sse sse sse   ssss ssss ssss ssss

Chorus:  (again, not right, but it sounds close to me)
|-------------------|-----------------|
|-------------------|-----------------|
|-------------------|-----------------|
|-22222222----------|-------------3h6-|
|----------11111111-|-1h4-2h5-3h6-----|
|-------------------|-----------------|


Important: The song above is NOT stored on the Chordie server. The original song is hosted at www.xguitar.com. Chordie works as a search engine and provides on-the-fly formatting. Chordie does not index songs against artists'/composers' will. To remove this song please click here.

This song is displayed as text-only. Transposing and tuning is only available for chordpro-songs.

Login - add to songbook

Rating click stars to rate

Layout
Accuracy

SHARE PAGE  




You need to log in to post comments