Guitar Tabs, Chords and Lyrics


Magic    Cars



Cars - Magic
Submitted By: Chilla
EMail: cacko_69@hotmail.com

Tuning: Standard (E A D G B E)

Magic!! :)

Intro/Verse

E|------------------||
B|------------------||
G|------------------||
D|-6----9---11------||
A|-5----9---13------||
E|-4----9---13------||
(Repeat as much as needed)

Pre-Chorus

E|-------------------------------------||
B|-------------------------------------||
G|--3-2-4-3-8-7-9-5-4-2-0--------------||
D|-------------------------------------||
A|-------------------------------------||
E|-------------------------------------||
(Repeat as much as needed)

Chorus

E|------------------||
B|------------------||
G|------------------||
D|-6---6---10--10---||
A|-6---7---10--10---||
E|-5---7---10--9----||
(Repeat as much as needed)

Solo

E|-------------------------------------||
B|-------------------------------------||
G|-/11~~~~~---9h10-11-11---------------||
D|-/10~~~~~----------------------------||
A|-------------------------------------||


Important: The song above is NOT stored on the Chordie server. The original song is hosted at www.xguitar.com. Chordie works as a search engine and provides on-the-fly formatting. Chordie does not index songs against artists'/composers' will. To remove this song please click here.

This song is displayed as text-only. Transposing and tuning is only available for chordpro-songs.

Login - add to songbook

Rating click stars to rate

Layout
Accuracy

Jango Player

SHARE PAGE  




You need to log in to post comments