Chordie logo

Get off My Back    Casualties



Band: The Casualties
Song: Get Off My Back
Album: Die Hards
Tuning: Standard

This is a sick ass song!!
Note-I use 2 finger powerchords cuz...thats just me

The intro is just bass and drums and then
the guitar comes in playing dead notes.
Listen to album for pattern.

Intro 1: (Guitar)
e:-------------------------------------
B:-------------------------------------
G:-------------------------------------
D:-------------------------------------  X 4
A:--7-777777777777777777777777777-888--
E:--5-555555555555555555555555555-666--
PM    ...........................

Intro 2:
e:---------------------------------------
B:---------------------------------------
G:---------------------------------------  X 2
D:----------10-10-10-10--5-5-55----------
A:--7-7-77---8--8--8--8--3-3-33--5-5-55--
E:--5-5-55-----------------------3-3-33--

Verse:

Play intro part one twice without palm muting.
Then go...
e:-------------------------
B:-------------------------
G:-------------------------  X 2
D:------10-10-10--555------
A:--777--8--8--8--333-5-8--
E:--555---------------3-6--

Chorus:
e:------------------
B:------------------
G:------------------ X 4
D:--------5---------
A:--555-4-3-777777--
E:--333-2---555555--

There ya go. Figure out the order for urdelf.
Enjoy! Plese rate and/or comment.


Important: The song above is NOT stored on the Chordie server. The original song is hosted at www.xguitar.com. Chordie works as a search engine and provides on-the-fly formatting. Chordie does not index songs against artists/composers will. To remove this song please click here.

This song is displayed as text-only. Transposing and tuning is only available for chordpro-songs.

Login - add to songbook

Rating click stars to rate

Layout
Accuracy

SHARE PAGE  



You need to log in to post comments