Guitar Tabs, Chords and Lyrics


Punk Rock    Casualties



Punk Rock - Casualties

Intro
e|--------------------------
B|--------------------------
G|--15-15-15------------12--
D|--15-15-15--12-12-12--12--
A|--13-13-13--12-12-12--10--
E|------------10-10-10------

Verse
e|---------------------------------------
B|---------------------------------------
G|--12-12-12--15--12-------------15--10--
D|--12-12-12--15--12---12-12-12--15--10--
A|--10-10-10--13--10---12-12-12--13---8--
E|---------------------10-10-10---------- Play 4x

Chorus
e|--------------------------
B|--------------------------
G|--15-15-15------------12--
D|--15-15-15--12-12-12--12--
A|--13-13-13--12-12-12--10--
E|------------10-10-10------ Play 2x

Bridge
e|---------------------------------------------------------------------
B|---------------------------------------------------------------------
G|------------9--10------------9--10------------9--10--12-12-12-12-12--
D|--10-10-10--9--10--10-10-10--9--10--10-10-10--9--10--12-12-12-12-12--
A|--10-10-10--7---8--10-10-10--7---8--10-10-10--7---8--10-10-10-10-10--
E|---8--8--8----------8--8--8----------8--8--8------------------------- Play 2x

"Too Many Rules"
e|------------------------------------------------------
B|------------------------------------------------------
G|--12-12-12-12--15-15-15-15----------------------------
D|--12-12-12-12--15-15-15-15--12-12-12-12--10-10-10-10--
A|--10-10-10-10--13-13-13-13--12-12-12-12--10-10-10-10--
E|----------------------------10-10-10-10---8--8--8--8-- Play 4x

Intro
Verse
Chorus
Bridge
Verse
Chorus
Bridge
Verse
Chorus
Bridge
"Too many rules"
Bridge
Chorus


Important: The song above is NOT stored on the Chordie server. The original song is hosted at www.xguitar.com. Chordie works as a search engine and provides on-the-fly formatting. Chordie does not index songs against artists/composers will. To remove this song please click here.

This song is displayed as text-only. Transposing and tuning is only available for chordpro-songs.

Login - add to songbook

Rating click stars to rate

Layout
Accuracy

SHARE PAGE  




You need to log in to post comments