Chordie logo


Unemployed    Casualties



Intro..

E---------------------------------------------------
B---------------------------------------------------
G---------------------------------------------------
D-9-9-9999999-5555---------9-9-9999999-7777---------
A-7-7-7777777-3333-7-77777-7-7-7777777-5555-9-99999-
E------------------5-55555------------------7-77777-

Verse: (3x)

E---------------------------------------------------
B---------------------------------------------------
G-9-9-9999999-5555---------9-9-9999999-7777---------
D-9-9-9999999-5555-7-77777-9-9-9999999-7777-9-99999-
A-7-7-7777777-3333-7-77777-7-7-7777777-5555-9-99999-
E------------------5-55555------------------7-77777-

Chorus: (2x)

E----------------------------------------------------------
B----------------------------------------------------------
G-99----1212-----------------99----1212--------------------
D-99-99-1212-1212-7777/9999--99-99-1010-1212-9999/12121212-
A-77-99-1010-1212-7777/9999--77-99-1010-1212-9999/12121212-
E----77------1010-5555/7777-----77------1010-7777/10101010-

Verse: (2x)

E---------------------------------------------------
B---------------------------------------------------
G-9-9-9999999-5555---------9-9-9999999-7777---------
D-9-9-9999999-5555-7-77777-9-9-9999999-7777-9-99999-
A-7-7-7777777-3333-7-77777-7-7-7777777-5555-9-99999-
E------------------5-55555------------------7-77777-

Chorus: (2x)

E----------------------------------------------------------
B----------------------------------------------------------
G-99----1212-----------------99----1212--------------------
D-99-99-1212-1212-7777/9999--99-99-1010-1212-9999/12121212-
A-77-99-1010-1212-7777/9999--77-99-1010-1212-9999/12121212-
E----77------1010-5555/7777-----77------1010-7777/10101010-

Bridge: (2x)

E---------------------------------------
B---------------------------------------
G------9999-77777777------9999----------
D-9999-9999-77777777-9999-9999-77777777-
A-9999-7777-55555555-9999-7777-77777777-
E-7777---------------7777------55555555-

E---------------------------------------------------
B---------------------------------------------------
G---------------------------------------------------
D-9-9-9999999-5555---------9-9-9999999-7777---------
A-7-7-7777777-3333-7-77777-7-7-7777777-5555-9-99999-
E------------------5-55555------------------7-77777-

Solo: (2x)
                  ~ ~
E-----------------5-5-----------------
B-5-5-55555-88888-----5-5-55555-8-5-~-
G-----------------------------------7-
D-------------------------------------
A-------------------------------------
E-------------------------------------

Verse: (2x)

E---------------------------------------------------
B---------------------------------------------------
G-9-9-9999999-5555---------9-9-9999999-7777---------
D-9-9-9999999-5555-7-77777-9-9-9999999-7777-9-99999-
A-7-7-7777777-3333-7-77777-7-7-7777777-5555-9-99999-
E------------------5-55555------------------7-77777-

Chorus: (2x)

E----------------------------------------------------------
B----------------------------------------------------------
G-99----1212-----------------99----1212--------------------
D-99-99-1212-1212-7777/9999--99-99-1010-1212-9999/12121212-
A-77-99-1010-1212-7777/9999--77-99-1010-1212-9999/12121212-
E----77------1010-5555/7777-----77------1010-7777/10101010-



Important: The song above is NOT stored on the Chordie server. The original song is hosted at www.xguitar.com. Chordie works as a search engine and provides on-the-fly formatting. Chordie does not index songs against artists/composers will. To remove this song please click here.

This song is displayed as text-only. Transposing and tuning is only available for chordpro-songs.

Login - add to songbook

Rating click stars to rate

Layout
Accuracy

SHARE PAGE  




You need to log in to post comments