Guitar Tabs, Chords and Lyrics


Katmandu   Cat Stevens

|---2-----------2h3---------5-------7-----------|


|-------3-----------3-----------6-------8-------|


|*----------2-----------2-------------------7---|

|*--0-----------0-----------0-------0-----------|
|-----------------------------------------------|
|-----------------------------------------------|
|-----------0h1-0----------------|
|---1---------------1------------|
|-----------------------0-------*|
|---------------------------2---*|
|---3----------------------------|
|--------------------------------|
|---------2-------------------0-----------2-------------------0-|
|-------------3-----------1-------------------3-----------1-----|
|*----2---------------0---------------2---------------0---------|
|*0-------0-----------------------0-------0---------------------|
|-----------------0---3---------------------------0---3---------|
|---------------------3-------------------------------3---------|
|---------2-------------------0-----------2-------------------0-|
|-------------3-----------1-------------------3-----------1-----|
|-----2---------------0---------------2---------------0---------|
|-0-------0-----------------------0-------0---------------------|
|-----------------0---3---------------------------0---3---------|
|---------------------3-------------------------------3---------|
|---------2-------------------0-----------2-------------------5-|
|-------------3-----------1-------------------3---------------6-|
|-----2---------------0---------------2-------------------5-----|
|-0-------0-----------------------0-------0-----------0---------|
|-----------------0---3---------------------------0-------------|
|---------------------3-----------------------------------------|
|---------3---------------3---------------2---------------0-----|
|---------5---------------3-------------------3---------------2-|
|-----5-------5-------4-------4-------2---------------2---------|
|---------------------------------------------------------------|
|-3-------------------------------0-------0-------0-------0-----|
|-----------------3---------------------------------------------|
|-----0-0-0---0-----------0-------0-----------3-----------2---|
|-----0-0-0---0-----------1-------1-----------0-----------3---|
|-----1-1-1---1-------0---0-------0-----------0-------2---2---|
|-----2-2-2---2---------------------------0-------0-----------|
|-0---2-2-2---2---3-----------3-------------------------------|
|-----0-0-0---0-----------------------3-----------------------|
|-----2-----------0---------------------------------------|
|-----3-------3---------------3---------------------------|
|-----2-------------------0-------------------------------|
|-0-------3-----------2-------------------------------2---|
|-----------------------------------------0---2---3-------|
|---------------------------------0---3-------------------|
|-----------------------------------------------------2---------|
|-----3---1p0-----0-----------1-------0-----------3-------3-----|
|-------------0-------------------------------2---------------2-|
|-----------------------------------------0---0---0---0---0---0-|
|-------------------------3---3---------------------------------|
|-3---3---3---3---3---3-----------3---3-------------------------|
|-------------1-------------------------------0-----------------|
|---------1-------1-----------0-----------1-------1-----------3-|
|-----2---------------2-------0-------2---------------2---------|
|---------------------------------------------------------0---0-|
|---------------------------------0---0---0---0---0---0---------|
|-1---1---1---1---1---1---0---0---------------------------------|
|-------------3---------------------------3---------------3-----|
|-------------0-------3---3/5-3---1-------1---------------1-----|
|---------0---0---------------------------0---------------0-----|
|---------------------------------------------------------------|
|---------------------5---5/7-5---3-----------3---2-----------2-|
|-3---------------3---------------------------------------------|
|---------------------------------|
|---------0---------------0-------|
|-0---2-------2-------0-------0--*|
|--------------------------------*|
|-------------0-------4-----------|
|-0---2---3-----------------------|
|---------2-------------------0-----------2-------------------0-|
|-------------3-----------1-------------------3-----------1-----|
|-----2---------------0---------------2---------------0---------|
|-0-------0-----------------------0-------0---------------------|
|-----------------0---3---------------------------0---3---------|
|---------------------3-------------------------------3---------|
|---2-----------2h3---------5-------7-----------|
|-------3-----------3-----------6-------8-------|
|*----------2-----------2-------------------7---|
|*--0-----------0-----------0-------0-----------|
|-----------------------------------------------|
|-----------------------------------------------|
|-----------0h1-0----------------|
|---1---------------1------------|
|-----------------------0-------*|
|---------------------------2---*|
|---3----------------------------|
|--------------------------------|
|--------------)2----------)3----------(5-----------||
|--(3----------(3----------(0----------)3-----------||
|--)0----------)2----------)0----------(2-----------||
|--(0----------(0----------(0----------)0-----------||
|--)-----------------------)2----------(0-----------||
|--(3----------------------(3-----------------------||
[D]  [C]   [D]  [C]   [D]  [C]   [D]  [C]                    
[D]I sit be[C]side the dark [D]
Beneath the mir[F]e
C[C]old grey du[G]sty day
D/A A A (strum) C G D
The morning lake drinks up the sky

CHORUS #1:
RIFF 1 C G C G D
Katmandu, I'll soon be seeing you
And your st[F]range, bewil[G]dering t[C]ime
F G RIFF 2 C/G B/G RIFF 3
Will hold me down

[D]  [C]   [D]  [C]   [D]  [C]   [D]  [C]                    
Chop me some broken wood
We'll start a fire
White, warm, light the dawn
And help me see, oh Satan's tree

CHORUS #2:
Katmandu, I'll soon be seeing you
And your strange, bewildering time
Will hold me down

Pass me my hat and coat
Lock up the cabin
Slow night, treat me right
Until I go, be nice to know

CHORUS #3:
Katmandu, I'll soon be seeing you
And your strange, bewildering time
Will keep me home

Important: The song above is NOT stored on the Chordie server. The original song is hosted at www.xguitar.com. Chordie works as a search engine and provides on-the-fly formatting. Chordie does not index songs against artists'/composers' will. To remove this song please click here.

Text color:
Chord color:
Chord grids: 
Font size:    
Page size: 

C D F G
variations - click chord images

Login - add to songbook

Transpose chords

Tuning

Rating click stars to rate

Layout
Accuracy

SHARE PAGE  




You need to log in to post comments