Chordie logo


Anchor    Cave In



Cave In - Anchor
Submitted By: Sambamsam
EMail: subnectouk@yahoo.co.uk


Drop D tuning

Intro

E||----------------------|----------------------|----------------------|
B||----------------------|----------------------|----------------------|
G||----------------------|----------------------|----------------------|
D||----------------------|----------------------|----------------------|
A||----------------------|----------------------|----------------------|
D||--3----3----3----3----|--3----3----3----3----|--2----2----2----2----|

			Whatever makes ...


----------------------|----------------------|----------------------|
----------------------|----------------------|----------------------|
----------------------|----------------------|----------------------|
----------------------|----------------------|----------------------|
----------------------|----------------------|----------------------|
--2----2----2----2----|--1----1----1----1----|--1----1----1----1----|



------------------------|----------------------|----------------------|
------------------------|----------------------|----------------------|
------------------------|----------------------|----------------------|
------------------------|----------------------|----------------------|
--11----11----x-x-x-x---|--9----9----x-x-x-x---|--8----8----8----8----|
--11----11----x-x-x-x---|--9----9----x-x-x-x---|--8----8----8----8----|

fails...


----------------------|----------------------|----------------------|
----------------------|----------------------|----------------------|
----------------------|----------------------|----------------------|
----------------------|----------------------|----------------------|
--8----8----8----8----|--2----2----2----2----|--2----2----2----2----|
--8----8----8----8----|--2----2----2----2----|--2----2----2----2----|



----------------------|----------------------|------------------------|
----------------------|----------------------|------------------------|
----------------------|----------------------|------------------------|
----------------------|----------------------|------------------------|
--1----1----1----1----|--1----1----1----1----|--11----11----x-x-x-x---|
--1----1----1----1----|--1----1----1----1----|--11----11----x-x-x-x---|


				Main Verse (slightly different to intro)


----------------------|------|----------------------|----------------------|
----------------------|------|----------------------|----------------------|
----------------------|------|----------------------|----------------------|
----------------------|------|----------------------|----------------------|
--9----9----x-x-x-x---|------|--8----8----8----8----|--8----8----8----8----|
--9----9----x-x-x-x---|------|--8----8----8----8----|--8----8----8----8----|



----------------------|----------------------|----------------------|
----------------------|----------------------|----------------------|
----------------------|----------------------|----------------------|
----------------------|----------------------|----------------------|
--2----2----2----2----|--2----2----2----2----|--1----1----1----1----|
--2----2----2----2----|--2----2----2----2----|--1----1----1----1----|



----------------------|------------------------|----------------------|------|
----------------------|------------------------|----------------------|------|
----------------------|------------------------|----------------------|------|
----------------------|------------------------|----------------------|------|
--1----1----1----1----|--11----11----x-x-x-x---|--9----9----x-x-x-x---|------|
--1----1----1----1----|--11----11----x-x-x-x---|--9----9----x-x-x-x---|------|


Bridge from Verse to chorus				Chorus

p.m......................................

----------------------|----------------------|------|--------------------------|
----------------------|----------------------|------|--------------------------|
----------------------|----------------------|------|--------------------------|
----------------------|----------------------|------|--------------------------|
--4----4----4----4----|--2----2----2----2----|------|--11----11----11----11----|
--4----4----4----4----|--2----2----2----2----|------|--11----11----11----11----|

								All you seem to...

--------------------------|----------------------|----------------------|
--------------------------|----------------------|----------------------|
--------------------------|----------------------|----------------------|
--------------------------|----------------------|----------------------|
--11----11----11----11----|--9----9----9----9----|--9----9----9----9----|
--11----11----11----11----|--9----9----9----9----|--9----9----9----9----|



--------------------------|--------------------------|----------------------|
--------------------------|--------------------------|----------------------|
--------------------------|--------------------------|----------------------|
--------------------------|--------------------------|----------------------|
--11----11----11----11----|--11----11----11----11----|--9----9----9----9----|
--11----11----11----11----|--11----11----11----11----|--9----9----9----9----|



----------------------|----------------------|----------------------|
----------------------|----------------------|----------------------|
----------------------|----------------------|----------------------|
----------------------|----------------------|----------------------|
--9----9----9----9----|--8----8----8----8----|--8----8----8----8----|
--9----9----9----9----|--8----8----8----8----|--8----8----8----8----|



----------------------|----------------------|----------------------|
----------------------|----------------------|----------------------|
----------------------|----------------------|----------------------|
----------------------|----------------------|----------------------|
--2----2----2----2----|--2----2----2----2----|--4----4----4----4----|
--2----2----2----2----|--2----2----2----2----|--4----4----4----4----|


			let ring...	Middle break


----------------------|-------|------|-----------------------|
----------------------|-------|------|-----------------------|
----------------------|-------|------|-----------------------|
----------------------|-------|------|-----------------------|
--4----4----4----4----|--2----|------|--3-----3----3----3----|
--4----4----4----4----|--2----|------|--2-----3----3----3----|



----------------------|----------------------|----------------------|
----------------------|----------------------|----------------------|
----------------------|----------------------|----------------------|
----------------------|----------------------|----------------------|
--3----3----3----3----|--4----4----4----4----|--4----4----4----4----|
--3----3----3----3----|--4----4----4----4----|--4----4----4----4----|



----------------------|----------------------|----------------------|
----------------------|----------------------|----------------------|
----------------------|----------------------|----------------------|
----------------------|----------------------|----------------------|
--5----5----5----5----|--5----5----5----5----|--4----4----4----4----|
--5----5----5----5----|--5----5----5----5----|--4----4----4----4----|



----------------------|----------------------|----------------------|
----------------------|----------------------|----------------------|
----------------------|----------------------|----------------------|
----------------------|----------------------|----------------------|
--4----4----4----4----|--3----3----3----3----|--3----3----3----3----|
--4----4----4----4----|--3----3----3----3----|--3----3----3----3----|



----------------------|----------------------|----------------------|
----------------------|----------------------|----------------------|
----------------------|----------------------|----------------------|
----------------------|----------------------|----------------------|
--4----4----4----4----|--4----4----4----4----|--1----1----1----1----|
--4----4----4----4----|--4----4----4----4----|--1----1----1----1----|



----------------------|----------------------|----------------------|------|
----------------------|----------------------|----------------------|------|
----------------------|----------------------|----------------------|------|
----------------------|----------------------|----------------------|------|
--1----1----1----1----|--3----3----3----3----|--3----3----3----3----|------|
--1----1----1----1----|--3----3----3----3----|--3----3----3----3----|------|



----------------------|----------------------|----------------------|
----------------------|----------------------|----------------------|
----------------------|----------------------|----------------------|
----------------------|----------------------|----------------------|
--3----3----3----3----|--3----3----3----3----|--4----4----4----4----|
--3----3----3----3----|--3----3----3----3----|--4----4----4----4----|



----------------------|----------------------|----------------------|------|
----------------------|----------------------|----------------------|------|
----------------------|----------------------|----------------------|------|
----------------------|----------------------|----------------------|------|
--4----4----4----4----|--8----8----8----8----|--8----8----8----8----|------|
--4----4----4----4----|--8----8----8----8----|--8----8----8----8----|------|

Back to intro bit for 1 bar


E||----------------------|----------------------|----------------------|
B||----------------------|----------------------|----------------------|
G||----------------------|----------------------|----------------------|
D||----------------------|----------------------|----------------------|
A||----------------------|----------------------|----------------------|
D||--3----3----3----3----|--3----3----3----3----|--2----2----2----2----|

			Whatever makes ...


----------------------|----------------------|----------------------|
----------------------|----------------------|----------------------|
----------------------|----------------------|----------------------|
----------------------|----------------------|----------------------|
----------------------|----------------------|----------------------|
--2----2----2----2----|--1----1----1----1----|--1----1----1----1----|



------------------------|----------------------|----------------------|
------------------------|----------------------|----------------------|
------------------------|----------------------|----------------------|
------------------------|----------------------|----------------------|
--11----11----x-x-x-x---|--9----9----x-x-x-x---|--8----8----8----8----|
--11----11----x-x-x-x---|--9----9----x-x-x-x---|--8----8----8----8----|

fails...


----------------------|----------------------|----------------------|
----------------------|----------------------|----------------------|
----------------------|----------------------|----------------------|
----------------------|----------------------|----------------------|
--8----8----8----8----|--2----2----2----2----|--2----2----2----2----|
--8----8----8----8----|--2----2----2----2----|--2----2----2----2----|



----------------------|----------------------|------------------------|
----------------------|----------------------|------------------------|
----------------------|----------------------|------------------------|
----------------------|----------------------|------------------------|
--1----1----1----1----|--1----1----1----1----|--11----11----x-x-x-x---|
--1----1----1----1----|--1----1----1----1----|--11----11----x-x-x-x---|


				to bridge


----------------------|------|
----------------------|------|
----------------------|------|
----------------------|------|
--9----9----x-x-x-x---|------|
--9----9----x-x-x-x---|------|



Outro chorus

--------------------------|--------------------------|----------------------|
--------------------------|--------------------------|----------------------|
--------------------------|--------------------------|----------------------|
--------------------------|--------------------------|----------------------|
--11----11----11----11----|--11----11----11----11----|--9----9----9----9----|
--11----11----11----11----|--11----11----11----11----|--9----9----9----9----|



----------------------|--------------------------|--------------------------|
----------------------|--------------------------|--------------------------|
----------------------|--------------------------|--------------------------|
----------------------|--------------------------|--------------------------|
--9----9----9----9----|--11----11----11----11----|--11----11----11----11----|
--9----9----9----9----|--11----11----11----11----|--11----11----11----11----|



----------------------|----------------------|----------------------|
----------------------|----------------------|----------------------|
----------------------|----------------------|----------------------|
----------------------|----------------------|----------------------|
--9----9----9----9----|--9----9----9----9----|--8----8----8----8----|
--9----9----9----9----|--9----9----9----9----|--8----8----8----8----|



----------------------|----------------------|----------------------|
----------------------|----------------------|----------------------|
----------------------|----------------------|----------------------|
----------------------|----------------------|----------------------|
--8----8----8----8----|--2----2----2----2----|--2----2----2----2----|
--8----8----8----8----|--2----2----2----2----|--2----2----2----2----|



----------------------|----------------------|----------------------|
----------------------|----------------------|----------------------|
----------------------|----------------------|----------------------|
----------------------|----------------------|----------------------|
--4----4----4----4----|--4----4----4----4----|--2----2----2----2----|
--4----4----4----4----|--4----4----4----4----|--2----2----2----2----|



----------------------|----------------------|----------------------|
----------------------|----------------------|----------------------|
----------------------|----------------------|----------------------|
----------------------|----------------------|----------------------|
--2----2----2----2----|--4----4----4----4----|--4----4----4----4----|
--2----2----2----2----|--4----4----4----4----|--4----4----4----4----|



----------------------|----------------------|----------------------|
----------------------|----------------------|----------------------|
----------------------|----------------------|----------------------|
----------------------|----------------------|----------------------|
--2----2----2----2----|--2----2----2----2----|--4----4----4----4----|
--2----2----2----2----|--2----2----2----2----|--4----4----4----4----|



----------------------||
----------------------||
----------------------||
----------------------||
--4----4----4----4----||
--4----4----4----4----||



OK thats about it.  there is some real simple lead bit during the break
but you should pick that up straight away.

And yes, you're right, the guys play do play the tune with the guitar dropped
an entire half step, and not drop D as I have tabbed it.
This is because my band is covering this tune, and to drop an entire guitar
mid-set can be quite awkward ;)

If you intend to cover this, drop D is fine.

This is by no means definitive, I know they play some open chords, but if
you transpose the chords, they should match.

Sambamsam



Important: The song above is NOT stored on the Chordie server. The original song is hosted at www.xguitar.com. Chordie works as a search engine and provides on-the-fly formatting. Chordie does not index songs against artists/composers will. To remove this song please click here.

This song is displayed as text-only. Transposing and tuning is only available for chordpro-songs.

Login - add to songbook

Rating click stars to rate

Layout
Accuracy

SHARE PAGE  




You need to log in to post comments