Guitar Tabs, Chords and Lyrics


Youth Overrided    Cave In



Cave In - Youth Overrided
Tabbed By: Officer_Dick
Email: gormansaghast@btinternet.com

Tuning: Standard (E A D G B E)

It's the first time ive done this so it might be a bit messy.  This is the
little solo played after the second chorus of the song.


E|---------------------------------------------------------------------------||
B|---------------------------------------------------------------------------||
G|-6-8-9-9-9-8-8-8-6-6-6-8-8-8-----------------------------6-8-9-9-9-8-8-8---||
D|-----------------------------6-6-6-6-6-6-6-6-6-6-6-6-6-6-------------------||
A|---------------------------------------------------------------------------||
E|---------------------------------------------------------------------------||

E|---------------------------------------------------------------------------||
B|---------------------------------------------------------------------------||
G|-6-6-6-4-4-4-8-8-8-8-8-6-4-------------6-8-9-9-9-8-8-8-6-6-6-8-8-8---------||
D|---------------------------6-6-6-6-6-6-----------------------------6-6-6-6-||
A|---------------------------------------------------------------------------||
E|---------------------------------------------------------------------------||

E|------------------------------------------------------------------------------------||
B|------------------------------------------------------------------------------------||
G|---------------------6-8-9-9-9-8-8-8-6-6-6-4-4-4-8-8-8-8-9-9-9-9-9-9-9-9-11-11-11-11||
D|-6-6-6-6-6-6-6-6-6-6----------------------------------------------------------------||
A|------------------------------------------------------------------------------------||


Important: The song above is NOT stored on the Chordie server. The original song is hosted at www.xguitar.com. Chordie works as a search engine and provides on-the-fly formatting. Chordie does not index songs against artists/composers will. To remove this song please click here.

This song is displayed as text-only. Transposing and tuning is only available for chordpro-songs.

Login - add to songbook

Rating click stars to rate

Layout
Accuracy

SHARE PAGE  




You need to log in to post comments