Guitar Tabs, Chords and Lyrics


Dawn Of Megiddo    Celtic Frost



tabbed by:ara
celtic frost

vvRiff 1 twice
D-------7------------------7------------------5------------------5----------
A----5-----7--6---------5-----7--6---------3-----5--4---------3-----5--4----
E-5--------5--4------5--------5--4------3--------3--2------3--------3--2----

Riff 2 4x
A----------7/8--6---------------7/8--9-----10/
E-0-0-0-0--5/6--4------0-0-0-0--5/6--7------8/

Riff 3 4x
A------5----------7/8---
E-0-0--3---0-0-0--5/6---

Riff 4 4x
A-4---4-4-4-4-4-4-4-4-4-4---7---11---
E-2---2-2-2-2-2-2-2-2-2-2---5---9----

Riff 5 4x
A-2-2-2-2--3--4----
E-0-0-0-0--1--2----

Riff 6 4x
D--------2---3----------
A-2------0---1---5--6---
E-0--------------3--4---

Riff 7 4x
A------7/6/7-------4/3---
E-0-0--5/4/5--0-0--2/1---

Riff 8 4x
A------------------5/4----------------------5/4--8---
E-0-0-0-0-0-0-0-0--3/2-----0-0-0-0-0-0-0-0--3/2--6---

Riff 6 4x
Riff 7 4x
Riff 8 4x
Riff 1 twice
Riff 2 4x
Riff 3 4x
Riff 4 4x


Important: The song above is NOT stored on the Chordie server. The original song is hosted at www.xguitar.com. Chordie works as a search engine and provides on-the-fly formatting. Chordie does not index songs against artists'/composers' will. To remove this song please click here.

This song is displayed as text-only. Transposing and tuning is only available for chordpro-songs.

Login - add to songbook

Rating click stars to rate

Layout
Accuracy

SHARE PAGE  




You need to log in to post comments