Guitar Tabs, Chords and Lyrics


The Usurper    Celtic Frost



CELTIC FROST - THE USURPER
(To Mega Therion, 1985)

Key
= after note = vibrato
^ after note = heavy vibrato
\ = slide down
/ = slide up
+ = tap
h = hammer
p = pull
n = natural harmonic
s = pinching harmonic (squeal)
* = tremolo pick
t = trill
b = bend
|-3-| = triplet

n number above the tab = play the first part then the first finishing part
			 play the first part a second time and then play the second finishing part
			 etc.

Riff 1

E -----------------------------
B -----------------------------
G -----3-----------------------
D -----3--------5-4-5-4-5-4-5--
A -0-0-1--------5-4-5-4-5-4-5--
E ----------0-0-3-2-3-2-3-2-3--

Riff 2

E -------------------------------------
B -------------------------------------
G -------------------------------------
D -------3--------5--------4--------5--
A -------3--------5--------4--------5--
E -00-00-1--00-00-3--00-00-2--00-00-3--

Riff 3

E --------------------------------------------
B --------------------------------------------
G ------------------------------6\5--6\5--6\5-
D -------8\7--------9\8---------6\5--6\5--6\5-
A -------8\7--------9\8---------4\3--4\3--4\3-
E -00-00-6\5--00-00-7\6---00-00---------------

Riff 4

E -------------------------------
B -------------------------------
G -------------------------5--5--
D -------------------------5--5--
A -------------------------3--3--
E -0-0-0-0-0-0-0-0-0-0-0-0-------

Riff 5

E -----------------------------------------
B -----------------------------------------
G -----------------------------------------
D -6--4------6--4------6--4------6--4------
A -6--4------6--4------6--4------6--4------
E -4--2------4--2------4--2------4--2------

Riff 5A

E ----------------------------------------------
B ----------------------------------------------
G ----------------------------------------------
D -6--4------6--4------6--4------6--4------4----
A -6--4------6--4------6--4------6--4------4----
E -4--2------4--2------4--2------4--2------2----

Riff 6

E ----------------------------------
B ----------------------------------
G ----------------------------------
D -2-2-2-2-2-2-2-2-2-2-2-2-2-2-2-4--
A -2-2-2-2-2-2-2-2-2-2-2-2-2-2-2-4--
E -0-0-0-0-0-0-0-0-0-0-0-0-0-0-0-2--

Riff 7

E -----------------------------
B -----------------------------
G -----------------------3-----
D -4-4-4-4-4-4-4-4-4-4-4-3--3--
A -4-4-4-4-4-4-4-4-4-4-4-1--3--
E -2-2-2-2-2-2-2-2-2-2-2----1--

Riff 8

E ---------------------
B ---------------------
G -------------3-2-3-5-
D -------------3-2-3-5-
A -00-00-00-00-1-0-1-3-
E ---------------------

Riff 9

E -------------------
B -------------------
G ---------------3---
D ---------------3---
A -22-22-22-22-2-1---
E -------------------

Order

Riff 1 x 4
Riff 2 x 4
Riff 3 x 4
Riff 4 x 4
Riff 5 x 1
Riff 2 x 4
Riff 3 x 4
Riff 4 x 4
Riff 5A x 1
Riff 6 x 4
Riff 7 x 4
Solo over Riff 6 x 4
Solo over Riff 7 x 4
Riff 8 x 4
Riff 9 x 2
Solo over Riff 9 x 2
Solo over Riff 8 x 4
Riff 2 x 2
Solo over Riff 2 x 2
Riff 3 x 4
Riff 4 x 4
Riff 5A x 1



Important: The song above is NOT stored on the Chordie server. The original song is hosted at www.xguitar.com. Chordie works as a search engine and provides on-the-fly formatting. Chordie does not index songs against artists'/composers' will. To remove this song please click here.

This song is displayed as text-only. Transposing and tuning is only available for chordpro-songs.

Login - add to songbook

Rating click stars to rate

Layout
Accuracy

SHARE PAGE  




You need to log in to post comments