Guitar Tabs, Chords and Lyrics


Another Know It All    Chevelle



Chevelle
Another Know It All
Tuning: A# F A# D# G C
Tabbed by Casey Keim

Intro/Chorus
C----------------------------------------------------------------------
G----------------------------------------------------------------------
D#-7-7-7-7-7-7-7-7-7-7-7-7-7-7-7-7-7-----------------------------------
A#-7-7-7-7-7-7-7-7-7-7-7-7-7-7-7-7-7-3-3-3-3-3-3-3-3-5-5-5-5-3-3-0-0-0-   3x
F--5-5-5-5-5-5-5-5-5-5-5-5-5-5-5-5-5-3-3-3-3-3-3-3-3-5-5-5-5-3-3-0-0-0-
A#-----------------------------------3-3-3-3-3-3-3-3-5-5-5-5-3-3-0-0-0-

C--------------------------------------------------------------------
G--------------------------------------------------------------------
D#-7-7-7-7-7-7-7-7-7-7-7-7-7-7-7-7-7---------------------------------
A#-7-7-7-7-7-7-7-7-7-7-7-7-7-7-7-7-7-3-3-3-3-3-3-3-3-3-3-2-2-2-2-2-2-  1x
F--5-5-5-5-5-5-5-5-5-5-5-5-5-5-5-5-5-3-3-3-3-3-3-3-3-3-3-2-2-2-2-2-2-
A#-----------------------------------3-3-3-3-3-3-3-3-3-3-2-2-2-2-2-2-

Pre Verse/2nd Part Of Verse/Outro
C-------------------------------------------------
G-------------------------------------------------
D#------------------------------------------------
A#-3-5-0---0--3-5-0---0--3-5-0---0--3-5-0--2-3-0--  4x
F--3-5-0---0--3-5-0---0--3-5-0---0--3-5-0--2-3-0--
A#-3-5-0---0--3-5-0---0--3-5-0---0--3-5-0--2-3-0--

1st Part Of Verse (if anyone has any idea on what this is, please tell me!)

Bridge
C--------------------------------------------------------------------
G--------------------------------------------------------------------
D#------------10-10-10-10-10-10-10-10------------10-10-10-10-9-9-9-9-
A#-0--0--0--0--x--x--x--x--x--x--x--x-0--0--0--0--x--x--x--x-x-x-x-x-
F--0--0--0--0--8--8--8--8--8--8--8--8-0--0--0--0--8--8--8--8-7-7-7-7-
A#-0--0--0--0-------------------------0--0--0--0---------------------
   *  *  *  *                         *  *  *  *
C------------------------------------------------------------------------
G------------------------------------------------------------------------
D#------------10-10-10-10-10-10-10-10------------10-10-10-10-13-13-13-13-
A#-0--0--0--0--x--x--x--x--x--x--x--x-0--0--0--0--x--x--x--x--x--x--x--x-  2x
F--0--0--0--0--8--8--8--8--8--8--8--8-0--0--0--0--8--8--8--8-11-11-11-11-
A#-0--0--0--0-------------------------0--0--0--0-------------------------
   *  *  *  *                         *  *  *  *
C------------------------------------------------------------------------------
G------------------------------------------------------------------------------
D#-----------------10-10-10-10-10-10-10-10-----------------10-10-10-10-9-9-9-9-
A#-0-0--0-0--0-0-0--x--x--x--x--x--x--x--x-0-0--0-0--0-0-0--x--x--x--x-x-x-x-x-
F--0-0--0-0--0-0-0--8--8--8--8--8--8--8--8-0-0--0-0--0-0-0--8--8--8--8-7-7-7-7-
A#-0-0--0-0--0-0-0-------------------------0-0--0-0--0-0-0---------------------
   * *  * *  * * *                         * *  * *  * * *
C----------------------------------------------------------------------------------
G----------------------------------------------------------------------------------
D#-----------------10-10-10-10-10-10-10-10-----------------10-10-10-10-13-13-13-13-
A#-0-0--0-0--0-0-0--x--x--x--x--x--x--x--x-0-0--0-0--0-0-0--x--x--x--x--x--x--x--x-
F--0-0--0-0--0-0-0--8--8--8--8--8--8--8--8-0-0--0-0--0-0-0--8--8--8--8-11-11-11-11-
A#-0-0--0-0--0-0-0-------------------------0-0--0-0--0-0-0-------------------------
   * *  * *  * * *                         * *  * *  * * *

C------------------------------------------------------------------------------
G------------------------------------------------------------------------------
D#-----------------10-10-10-10-10-10-10-10-----------------10-10-10-10-9-9-9-9-
A#-0-0--0-0--0-0-0--x--x--x--x--x--x--x--x-0-0--0-0--0-0-0--x--x--x--x-x-x-x-x-
F--0-0--0-0--0-0-0--8--8--8--8--8--8--8--8-0-0--0-0--0-0-0--8--8--8--8-7-7-7-7-
A#-0-0--0-0--0-0-0-------------------------0-0--0-0--0-0-0---------------------
   * *  * *  * * *                         * *  * *  * * *
C--------------------------------------------------------------------------
G--------------------------------------------------------------------------
D#-----------------10-10-10-10-10-10-10-10---------------------------------
A#-0-0--0-0--0-0-0--x--x--x--x--x--x--x--x-3-3-x-x-x-x-x-x-5-5-x-x-x-x-x-x-
F--0-0--0-0--0-0-0--8--8--8--8--8--8--8--8-3-3-x-x-x-x-x-x-5-5-x-x-x-x-x-x-
A#-0-0--0-0--0-0-0-------------------------3-3-x-x-x-x-x-x-5-5-x-x-x-x-x-x-
   * *  * *  * * *
Palm Mute = *

Order of Song:
Intro
Pre Verse
1st Part of Verse
2nd Part of Verse
Chorus
Pre Verse
1st Part of Verse
2nd Part of Verse
Chorus
Bridge
Chorus 2x


Important: The song above is NOT stored on the Chordie server. The original song is hosted at www.xguitar.com. Chordie works as a search engine and provides on-the-fly formatting. Chordie does not index songs against artists'/composers' will. To remove this song please click here.

This song is displayed as text-only. Transposing and tuning is only available for chordpro-songs.

Login - add to songbook

Rating click stars to rate

Layout
Accuracy

SHARE PAGE  




You need to log in to post comments