"yes"; ?> Tug-O-War by Chevelle - guitar chords, guitar tabs and lyrics - chordie

Tug-O-War

Chevelle


Chevelle Tug-O-War This Type Of Thinking (Could Do Us In)
A#,F,A#,D#,G,C
This song had a good number of fills and etc, so I tabbed it out in it\'s entirety... just follow the tab :)
* = Palm Mute ~ = Let Ring / = Quick Slide h = Hammer p = Pull-off
|---------------|---------------|---------------|---------------| |---------------|---------------|---------------|---------------| |---------------|---------------|---------------|---------------| |---------------|---------------|---------------|---------------| |---------9-8-8-|---------9-8-8-|---------9-8-8-|---------4-4-4-| |-0-0-0-0-------|-0-0-0-0-------|-0-0-0-0-------|-0-0-0-0-------| * * * * * * * * * * * * * * * * * * * * * * * * * * * *
|---------------|---------------|---------------|---------------| |---------------|---------------|---------------|---------------| |---------------|---------------|---------------|---------------| |---------------|---------------|---------------|---------------| |---------6-5-5-|---------6-5-5-|---------6-5-5-|---------3-3-3-| |-0-0-0-0-------|-0-0-0-0-------|-0-0-0-0-------|-0-0-0-0-------| * * * * * * * * * * * * * * * * * * * * * * * * * * * *
|---------------|---------------|---------------|---------------| |---------------|---------------|---------------|---------------| |---------------|---------------|---------------|---------------| |---------------|---------------|---------------|---------------| |---------9-8-8-|---------9-8-8-|---------9-8-8-|---------4-4-4-| |-0-0-0-0-------|-0-0-0-0-------|-0-0-0-0-------|-0-0-0-0-------| * * * * * * * * * * * * * * * * * * * * * * * * * * * *
|---------------|---------------|---------------|-----------| |---------------|---------------|---------------|-----------| |---------------|---------------|---------------|-----------| |---------------|---------------|---------------|-----------| |---------6-5-5-|---------6-5-5-|---------6-5-5-|---------3-| |-0-0-0-0-------|-0-0-0-0-------|-0-0-0-0-------|-0-0-0-0---| * * * * * * * * * * * * * * * * * * * * * * * * *
|--------------|--------------|--------------|-------| |--------------|--------------|--------------|-------| |-----11-10-10-|-----11-10-10-|-----11-10-10-|-----6-| |-0-0-11-10-10-|-0-0-11-10-10-|-0-0-11-10-10-|-0-0-6-| |-0-0--9--8--8-|-0-0--9--8--8-|-0-0--9--8--8-|-0-0-4-| |-0-0----------|-0-0----------|-0-0----------|-0-0---|
|-----------|-----------|-----------|-----------| |-----------|-----------|-----------|-----------| |-----8-7-7-|-----8-7-7-|-----8-7-7-|-5-5-5-5---| |-0-0-8-7-7-|-0-0-8-7-7-|-0-0-8-7-7-|-5-5-5-5-3-| |-0-0-6-5-5-|-0-0-6-5-5-|-0-0-6-5-5-|-3-3-3-3-3-| |-0-0-------|-0-0-------|-0-0-------|---------3-|
|---------------|---------------|---------------|---------------| |---------------|---------------|---------------|---------------| |---------------|---------------|---------------|---------------| |---------------|---------------|---------------|---------------| |---------9-8-8-|---------9-8-8-|---------9-8-8-|---------4-4-4-| |-0-0-0-0-------|-0-0-0-0-------|-0-0-0-0-------|-0-0-0-0-------| * * * * * * * * * * * * * * * * * * * * * * * * * * * *
|---------------|---------------|---------------|---------------| |---------------|---------------|---------------|---------------| |---------------|---------------|---------------|---------------| |---------------|---------------|---------------|---------------| |---------6-5-5-|---------6-5-5-|---------6-5-5-|---------3-3-3-| |-0-0-0-0-------|-0-0-0-0-------|-0-0-0-0-------|-0-0-0-0-------| * * * * * * * * * * * * * * * * * * * * * * * * * * * *
|---------------|---------------|---------------|---------------| |---------------|---------------|---------------|---------------| |---------------|---------------|---------------|---------------| |---------------|---------------|---------------|---------------| |---------9-8-8-|---------9-8-8-|---------9-8-8-|---------4-4-4-| |-0-0-0-0-------|-0-0-0-0-------|-0-0-0-0-------|-0-0-0-0-------| * * * * * * * * * * * * * * * * * * * * * * * * * * * *
|---------------|---------------|---------------|---------------| |---------------|---------------|---------------|---------------| |---------------|---------------|---------------|---------------| |---------------|---------------|---------------|---------------| |---------6-5-5-|---------6-5-5-|---------6-5-5-|---------3-3-3-| |-0-0-0-0-------|-0-0-0-0-------|-0-0-0-0-------|-0-0-0-0-------| * * * * * * * * * * * * * * * * * * * * * * * * * * * *
|---------------|---------------|---------------|---------------| |---------------|---------------|---------------|---------------| |---------------|---------------|---------------|---------------| |---------------|---------------|---------------|---------------| |-0-0-0-0-9-8-8-|-0-0-0-0-9-8-8-|-0-0-0-0-9-8-8-|-0-0-0-0-4-4-4-| |-0-0-0-0-------|-0-0-0-0-------|-0-0-0-0-------|-0-0-0-0-------|
|---------------|---------------|---------------|---------------| |---------------|---------------|---------------|---------------| |---------------|---------------|---------------|---------------| |---------------|---------------|---------------|---------------| |-0-0-0-0-6-5-5-|-0-0-0-0-6-5-5-|-0-0-0-0-6-5-5-|-0-0-0-0-3-3-3-| |-0-0-0-0-------|-0-0-0-0-------|-0-0-0-0-------|-0-0-0-0-------|
|---------------|---------------|---------------|---------------| |---------------|---------------|---------------|---------------| |---------------|---------------|---------------|---------------| |---------------|---------------|---------------|---------------| |-0-0-0-0-9-8-8-|-0-0-0-0-9-8-8-|-0-0-0-0-9-8-8-|-0-0-0-0-4-4-4-| |-0-0-0-0-------|-0-0-0-0-------|-0-0-0-0-------|-0-0-0-0-------|
|---------------|---------------|---------------|-----------| |---------------|---------------|---------------|-----------| |---------------|---------------|---------------|-----------| |---------------|---------------|---------------|---------3-| |-0-0-0-0-6-5-5-|-0-0-0-0-6-5-5-|-0-0-0-0-6-5-5-|-0-0-0-0-1-| |-0-0-0-0-------|-0-0-0-0-------|-0-0-0-0-------|-0-0-0-0---|
|-----------------|-----------------|-----------------|-----------------| |-----------------|-----------------|-----------------|-----------------| |-----------------|-----------------|-----------------|-----------------| |-----------------|-----------------|-----------------|-----------------| |-3h5-5-5-5-5-5-5-|-3h5-5-5-5-5-5-5-|-3h5-5-5-5-5-5-5-|-5h6-6-6-6-6-6-6-| |-----------------|-----------------|-----------------|-----------------| * * * * * * * * * * * * * * * * * * * * * * * * * * * * * * * *
|-----------------|-----------------|-----------------|-------| |-----------------|-----------------|-----------------|-------| |-----------------|-----------------|-----------------|-8-3-3-| |-----------------|-----------------|-----------------|-8-3-3-| |-3h5-5-5-5-5-5-5-|-3h5-5-5-5-5-5-5-|-3h5-5-5-5-5-5-5-|-6-1-1-| |-----------------|-----------------|-----------------|-------| * * * * * * * * * * * * * * * * * * * * * * * *
|-----------------------------------|-----------------------------------| |-----------------------------------|-----------------------------------| |-2-2-2-2--2-2-2-2------------------|-2-2-2-2--2-2-2-2------------------| |-2-2-2-2--2-2-2-2-3-3-3-3--3-3-3-3-|-2-2-2-2--2-2-2-2-3-3-3-3--3-3-3-3-| |-0-0-0-0--0-0-0-0-3-3-3-3--3-3-3-3-|-0-0-0-0--0-0-0-0-3-3-3-3--3-3-3-3-| |------------------3-3-3-3--3-3-3-3-|------------------3-3-3-3--3-3-3-3-|
|-------------|-------------|-----------------| |-------------|-------------|-----------------| |-------------|-------------|-----------------| |-0-0-0-0-----|-0-0-0-0-----|-----------------| |-0-0-0-0-9p8-|-0-0-0-0-9p8-|-9p8-9p8-9p8-9p8-| |-0-0-0-0-----|-0-0-0-0-----|-----------------|
|--------------|--------------|--------------|-------| |--------------|--------------|--------------|-------| |-----11-10-10-|-----11-10-10-|-----11-10-10-|-----6-| |-0-0-11-10-10-|-0-0-11-10-10-|-0-0-11-10-10-|-0-0-6-| |-0-0--9--8--8-|-0-0--9--8--8-|-0-0--9--8--8-|-0-0-4-| |-0-0----------|-0-0----------|-0-0----------|-0-0---|
|-----------|-----------|-----------|-----------| |-----------|-----------|-----------|-----------| |-----8-7-7-|-----8-7-7-|-----8-7-7-|-5-5-5-5---| |-0-0-8-7-7-|-0-0-8-7-7-|-0-0-8-7-7-|-5-5-5-5-3-| |-0-0-6-5-5-|-0-0-6-5-5-|-0-0-6-5-5-|-3-3-3-3-3-| |-0-0-------|-0-0-------|-0-0-------|---------3-|

|---------------|---------------|---------------|---------------| |---------------|---------------|---------------|---------------| |---------------|---------------|---------------|---------------| |---------------|---------------|---------------|---------------| |---------9-8-8-|---------9-8-8-|---------9-8-8-|---------4-4-4-| |-0-0-0-0-------|-0-0-0-0-------|-0-0-0-0-------|-0-0-0-0-------| * * * * * * * * * * * * * * * * * * * * * * * * * * * *
|---------------|---------------|---------------|---------------| |---------------|---------------|---------------|---------------| |---------------|---------------|---------------|---------------| |---------------|---------------|---------------|---------------| |---------6-5-5-|---------6-5-5-|---------6-5-5-|---------3-3-3-| |-0-0-0-0-------|-0-0-0-0-------|-0-0-0-0-------|-0-0-0-0-------| * * * * * * * * * * * * * * * * * * * * * * * * * * * *
|---------------|---------------|---------------|---------------| |---------------|---------------|---------------|---------------| |---------------|---------------|---------------|---------------| |---------------|---------------|---------------|---------------| |---------9-8-8-|---------9-8-8-|---------9-8-8-|---------4-4-4-| |-0-0-0-0-------|-0-0-0-0-------|-0-0-0-0-------|-0-0-0-0-------| * * * * * * * * * * * * * * * * * * * * * * * * * * * *
|---------------|---------------|---------------|---------------| |---------------|---------------|---------------|---------------| |---------------|---------------|---------------|---------------| |---------------|---------------|---------------|---------------| |---------6-5-5-|---------6-5-5-|---------6-5-5-|---------3-3-3-| |-0-0-0-0-------|-0-0-0-0-------|-0-0-0-0-------|-0-0-0-0-------| * * * * * * * * * * * * * * * * * * * * * * * * * * * *
|---------------|---------------|---------------|---------------| |---------------|---------------|---------------|---------------| |---------------|---------------|---------------|---------------| |---------------|---------------|---------------|---------------| |-0-0-0-0-9-8-8-|-0-0-0-0-9-8-8-|-0-0-0-0-9-8-8-|-0-0-0-0-4-4-4-| |-0-0-0-0-------|-0-0-0-0-------|-0-0-0-0-------|-0-0-0-0-------|
|---------------|---------------|---------------|---------------| |---------------|---------------|---------------|---------------| |---------------|---------------|---------------|---------------| |---------------|---------------|---------------|---------------| |-0-0-0-0-6-5-5-|-0-0-0-0-6-5-5-|-0-0-0-0-6-5-5-|-0-0-0-0-3-3-3-| |-0-0-0-0-------|-0-0-0-0-------|-0-0-0-0-------|-0-0-0-0-------|
|---------------|---------------|---------------|---------------| |---------------|---------------|---------------|---------------| |---------------|---------------|---------------|---------------| |---------------|---------------|---------------|---------------| |-0-0-0-0-9-8-8-|-0-0-0-0-9-8-8-|-0-0-0-0-9-8-8-|-0-0-0-0-4-4-4-| |-0-0-0-0-------|-0-0-0-0-------|-0-0-0-0-------|-0-0-0-0-------|
|---------------|---------------|---------------|-----------| |---------------|---------------|---------------|-----------| |---------------|---------------|---------------|-----------| |---------------|---------------|---------------|---------3-| |-0-0-0-0-6-5-5-|-0-0-0-0-6-5-5-|-0-0-0-0-6-5-5-|-0-0-0-0-1-| |-0-0-0-0-------|-0-0-0-0-------|-0-0-0-0-------|-0-0-0-0---|
|-----------------|-----------------|-----------------|-----------------| |-----------------|-----------------|-----------------|-----------------| |-----------------|-----------------|-----------------|-----------------| |-----------------|-----------------|-----------------|-----------------| |-3h5-5-5-5-5-5-5-|-3h5-5-5-5-5-5-5-|-3h5-5-5-5-5-5-5-|-5h6-6-6-6-6-6-6-| |-----------------|-----------------|-----------------|-----------------| * * * * * * * * * * * * * * * * * * * * * * * * * * * * * * * *
|-----------------|-----------------|-----------------|-------| |-----------------|-----------------|-----------------|-------| |-----------------|-----------------|-----------------|-8-3-3-| |-----------------|-----------------|-----------------|-8-3-3-| |-3h5-5-5-5-5-5-5-|-3h5-5-5-5-5-5-5-|-3h5-5-5-5-5-5-5-|-6-1-1-| |-----------------|-----------------|-----------------|-------| * * * * * * * * * * * * * * * * * * * * * * * *
|-----------------------------------|-----------------------------------| |-----------------------------------|-----------------------------------| |-2-2-2-2--2-2-2-2------------------|-2-2-2-2--2-2-2-2------------------| |-2-2-2-2--2-2-2-2-3-3-3-3--3-3-3-3-|-2-2-2-2--2-2-2-2-3-3-3-3--3-3-3-3-| |-0-0-0-0--0-0-0-0-3-3-3-3--3-3-3-3-|-0-0-0-0--0-0-0-0-3-3-3-3--3-3-3-3-| |------------------3-3-3-3--3-3-3-3-|------------------3-3-3-3--3-3-3-3-|
|-0-0-0-0-0-0-0-0-0-0-0-0-|-0-0-0-0-0-0-0-0-0-0-0-0-| |-5-5-5-5-5-5-5-5-5-5-5-5-|-5-5-5-5-5-5-5-5-5-5-5-5-| |-2-2-2-2-2-2-2-3-x-x-x-x-|-2-2-2-2-2-2-2-3-x-x-x-x-| |-0-0-0-0---------3-3-3-3-|-0-0-0-0---------3-3-3-3-| |-0-0-0-0---------3-3-3-3-|-0-0-0-0---------3-3-3-3-| |-----------------3-3-3-3-|-----------------3-3-3-3-|
|-0-0-0-0-0-0-0-0-0-0-0-0-|-0-0-0-0-0-0-0-0-0-0-0-0-| |-5-5-5-5-5-5-5-5-5-5-5-5-|-5-5-5-5-5-5-5-5-5-5-5-5-| |-2-2-2-2-2-2-2-3-x-x-x-x-|-2-2-2-2-2-2-2-3-x-x-x-x-| |-0-0-0-0---------3-3-3-3-|-0-0-0-0---------3-3-3-3-| |-0-0-0-0---------3-3-3-3-|-0-0-0-0---------3-3-3-3-| |-----------------3-3-3-3-|-----------------3-3-3-3-|
|-----------------------------------|-----------------------------------| |-----------------------------------|-----------------------------------| |-2-2-2-2--2-2-2-2------------------|-2-2-2-2--2-2-2-2------------------| |-2-2-2-2--2-2-2-2-3-3-3-3--3-3-3-3-|-2-2-2-2--2-2-2-2-3-3-3-3--3-3-3-3-| |-0-0-0-0--0-0-0-0-3-3-3-3--3-3-3-3-|-0-0-0-0--0-0-0-0-3-3-3-3--3-3-3-3-| |------------------3-3-3-3--3-3-3-3-|------------------3-3-3-3--3-3-3-3-|
|-----------------------------------|-----------------------------------| |-----------------------------------|-----------------------------------| |-2-2-2-2--2-2-2-2------------------|-2-2-2-2--2-2-2-2------------------| |-2-2-2-2--2-2-2-2-3-3-3-3--3-3-3-3-|-2-2-2-2--2-2-2-2-3-3-3-3--3-3-3-3-| |-0-0-0-0--0-0-0-0-3-3-3-3--3-3-3-3-|-0-0-0-0--0-0-0-0-3-3-3-3--3-3-3-3-| |------------------3-3-3-3--3-3-3-3-|------------------3-3-3-3--3-3-3-3-|
|-------------------------------------------------------------------------| |-------------------------------------------------------------------------| |-------------------------------------------------------------------------| |-------------------------------------------------------------------------| |-3h5-5-5-5-5-5-5-5-5-5-5-5-5-5-5-5-3h5-5-5-5-5-5-5-5-5-6-6-6-6-6-6-6-6-6-| |-------------------------------------------------------------------------| * * * * * * * * * * * * * * * * * * * * * * * * * * * * * * * * * * * *
|-----------------------------------------------------------| |-----------------------------------------------------------| |-----------------------------------------------------8-3-3-| |-----------------------------------------------------8-3-3-| |-3h5-5-5-5-5-5-5-5-5-5-5-5-5-5-5-5-3h5-5-5-5-5-5-5-5-6-1-1-| |-----------------------------------------------------------| * * * * * * * * * * * * * * * * * * * * * * * * * *
|-----------------|-----------------|-----------------|-----------------| |-----------------|-----------------|-----------------|-----------------| |-5/7-7-7-7-7-7-7-|-5/7-7-7-7-7-7-7-|-5/7-7-7-7-7-7-7-|-8-8-8-8-8-8-8-8-| |-5/7-7-7-7-7-7-7-|-5/7-7-7-7-7-7-7-|-5/7-7-7-7-7-7-7-|-8-8-8-8-8-8-8-8-| |-3/5-5-5-5-5-5-5-|-3/5-5-5-5-5-5-5-|-3/5-5-5-5-5-5-5-|-6-6-6-6-6-6-6-6-| |-----------------|-----------------|-----------------|-----------------|
|-----------------|-----------------|-----------------|-------| |-----------------|-----------------|-----------------|-------| |-5/7-7-7-7-7-7-7-|-5/7-7-7-7-7-7-7-|-5/7-7-7-7-7-7-7-|-8-3-3-| |-5/7-7-7-7-7-7-7-|-5/7-7-7-7-7-7-7-|-5/7-7-7-7-7-7-7-|-8-3-3-| |-3/5-5-5-5-5-5-5-|-3/5-5-5-5-5-5-5-|-3/5-5-5-5-5-5-5-|-6-1-1-| |-----------------|-----------------|-----------------|-------|
|-----------------|-----------------|-----------------|-----------------| |-----------------|-----------------|-----------------|-----------------| |-5/7-7-7-7-7-7-7-|-5/7-7-7-7-7-7-7-|-5/7-7-7-7-7-7-7-|-8-8-8-8-8-8-8-8-| |-5/7-7-7-7-7-7-7-|-5/7-7-7-7-7-7-7-|-5/7-7-7-7-7-7-7-|-8-8-8-8-8-8-8-8-| |-3/5-5-5-5-5-5-5-|-3/5-5-5-5-5-5-5-|-3/5-5-5-5-5-5-5-|-6-6-6-6-6-6-6-6-| |-----------------|-----------------|-----------------|-----------------|
|-----------------|-----------------|-----------------|-------| |-----------------|-----------------|-----------------|-------| |-5/7-7-7-7-7-7-7-|-5/7-7-7-7-7-7-7-|-5/7-7-7-7-7-7-7-|-8-3-3-| |-5/7-7-7-7-7-7-7-|-5/7-7-7-7-7-7-7-|-5/7-7-7-7-7-7-7-|-8-3-3-| |-3/5-5-5-5-5-5-5-|-3/5-5-5-5-5-5-5-|-3/5-5-5-5-5-5-5-|-6-1-1-| |-----------------|-----------------|-----------------|-------|
|----| |----| |-2~-| |-2~-| |-0~-| |----|

variations - click chord images
Transpose chords:
Tuning:
Cool service:
View: Size:
A  A  A
Rating:
Layout:
  • Currently 0/5 Stars.
  • 1
  • 2
  • 3
  • 4
  • 5
 
Accuracy:
  • Currently 0/5 Stars.
  • 1
  • 2
  • 3
  • 4
  • 5
 
click stars to rate
Chordie recommends:
Learn to play this song & others via video guitar lessons at JamPlay.com
Songbook:
Login to add this song to your songbook
Support the artist
Preview/buy this song
MSN Music
Why this non-profit ad?

 
login to add comments/video/corrections