Guitar Tabs, Chords and Lyrics


Tug-O-War    Chevelle



Chevelle
Tug-O-War
This Type Of Thinking (Could Do Us In)

A#,F,A#,D#,G,C

This song had a good number of fills and etc, so I tabbed it out in it\'s entirety... just follow the tab :)

* = Palm Mute
~ = Let Ring
/ = Quick Slide
h = Hammer
p = Pull-off

|---------------|---------------|---------------|---------------|
|---------------|---------------|---------------|---------------|
|---------------|---------------|---------------|---------------|
|---------------|---------------|---------------|---------------|
|---------9-8-8-|---------9-8-8-|---------9-8-8-|---------4-4-4-|
|-0-0-0-0-------|-0-0-0-0-------|-0-0-0-0-------|-0-0-0-0-------|
  * * * * * * *   * * * * * * *   * * * * * * *   * * * * * * *

|---------------|---------------|---------------|---------------|
|---------------|---------------|---------------|---------------|
|---------------|---------------|---------------|---------------|
|---------------|---------------|---------------|---------------|
|---------6-5-5-|---------6-5-5-|---------6-5-5-|---------3-3-3-|
|-0-0-0-0-------|-0-0-0-0-------|-0-0-0-0-------|-0-0-0-0-------|
  * * * * * * *   * * * * * * *   * * * * * * *   * * * * * * *

|---------------|---------------|---------------|---------------|
|---------------|---------------|---------------|---------------|
|---------------|---------------|---------------|---------------|
|---------------|---------------|---------------|---------------|
|---------9-8-8-|---------9-8-8-|---------9-8-8-|---------4-4-4-|
|-0-0-0-0-------|-0-0-0-0-------|-0-0-0-0-------|-0-0-0-0-------|
  * * * * * * *   * * * * * * *   * * * * * * *   * * * * * * *

|---------------|---------------|---------------|-----------|
|---------------|---------------|---------------|-----------|
|---------------|---------------|---------------|-----------|
|---------------|---------------|---------------|-----------|
|---------6-5-5-|---------6-5-5-|---------6-5-5-|---------3-|
|-0-0-0-0-------|-0-0-0-0-------|-0-0-0-0-------|-0-0-0-0---|
  * * * * * * *   * * * * * * *   * * * * * * *   * * * *

|--------------|--------------|--------------|-------|
|--------------|--------------|--------------|-------|
|-----11-10-10-|-----11-10-10-|-----11-10-10-|-----6-|
|-0-0-11-10-10-|-0-0-11-10-10-|-0-0-11-10-10-|-0-0-6-|
|-0-0--9--8--8-|-0-0--9--8--8-|-0-0--9--8--8-|-0-0-4-|
|-0-0----------|-0-0----------|-0-0----------|-0-0---|

|-----------|-----------|-----------|-----------|
|-----------|-----------|-----------|-----------|
|-----8-7-7-|-----8-7-7-|-----8-7-7-|-5-5-5-5---|
|-0-0-8-7-7-|-0-0-8-7-7-|-0-0-8-7-7-|-5-5-5-5-3-|
|-0-0-6-5-5-|-0-0-6-5-5-|-0-0-6-5-5-|-3-3-3-3-3-|
|-0-0-------|-0-0-------|-0-0-------|---------3-|

|---------------|---------------|---------------|---------------|
|---------------|---------------|---------------|---------------|
|---------------|---------------|---------------|---------------|
|---------------|---------------|---------------|---------------|
|---------9-8-8-|---------9-8-8-|---------9-8-8-|---------4-4-4-|
|-0-0-0-0-------|-0-0-0-0-------|-0-0-0-0-------|-0-0-0-0-------|
  * * * * * * *   * * * * * * *   * * * * * * *   * * * * * * *

|---------------|---------------|---------------|---------------|
|---------------|---------------|---------------|---------------|
|---------------|---------------|---------------|---------------|
|---------------|---------------|---------------|---------------|
|---------6-5-5-|---------6-5-5-|---------6-5-5-|---------3-3-3-|
|-0-0-0-0-------|-0-0-0-0-------|-0-0-0-0-------|-0-0-0-0-------|
  * * * * * * *   * * * * * * *   * * * * * * *   * * * * * * *

|---------------|---------------|---------------|---------------|
|---------------|---------------|---------------|---------------|
|---------------|---------------|---------------|---------------|
|---------------|---------------|---------------|---------------|
|---------9-8-8-|---------9-8-8-|---------9-8-8-|---------4-4-4-|
|-0-0-0-0-------|-0-0-0-0-------|-0-0-0-0-------|-0-0-0-0-------|
  * * * * * * *   * * * * * * *   * * * * * * *   * * * * * * *

|---------------|---------------|---------------|---------------|
|---------------|---------------|---------------|---------------|
|---------------|---------------|---------------|---------------|
|---------------|---------------|---------------|---------------|
|---------6-5-5-|---------6-5-5-|---------6-5-5-|---------3-3-3-|
|-0-0-0-0-------|-0-0-0-0-------|-0-0-0-0-------|-0-0-0-0-------|
  * * * * * * *   * * * * * * *   * * * * * * *   * * * * * * *

|---------------|---------------|---------------|---------------|
|---------------|---------------|---------------|---------------|
|---------------|---------------|---------------|---------------|
|---------------|---------------|---------------|---------------|
|-0-0-0-0-9-8-8-|-0-0-0-0-9-8-8-|-0-0-0-0-9-8-8-|-0-0-0-0-4-4-4-|
|-0-0-0-0-------|-0-0-0-0-------|-0-0-0-0-------|-0-0-0-0-------|


|---------------|---------------|---------------|---------------|
|---------------|---------------|---------------|---------------|
|---------------|---------------|---------------|---------------|
|---------------|---------------|---------------|---------------|
|-0-0-0-0-6-5-5-|-0-0-0-0-6-5-5-|-0-0-0-0-6-5-5-|-0-0-0-0-3-3-3-|
|-0-0-0-0-------|-0-0-0-0-------|-0-0-0-0-------|-0-0-0-0-------|

|---------------|---------------|---------------|---------------|
|---------------|---------------|---------------|---------------|
|---------------|---------------|---------------|---------------|
|---------------|---------------|---------------|---------------|
|-0-0-0-0-9-8-8-|-0-0-0-0-9-8-8-|-0-0-0-0-9-8-8-|-0-0-0-0-4-4-4-|
|-0-0-0-0-------|-0-0-0-0-------|-0-0-0-0-------|-0-0-0-0-------|

|---------------|---------------|---------------|-----------|
|---------------|---------------|---------------|-----------|
|---------------|---------------|---------------|-----------|
|---------------|---------------|---------------|---------3-|
|-0-0-0-0-6-5-5-|-0-0-0-0-6-5-5-|-0-0-0-0-6-5-5-|-0-0-0-0-1-|
|-0-0-0-0-------|-0-0-0-0-------|-0-0-0-0-------|-0-0-0-0---|

|-----------------|-----------------|-----------------|-----------------|
|-----------------|-----------------|-----------------|-----------------|
|-----------------|-----------------|-----------------|-----------------|
|-----------------|-----------------|-----------------|-----------------|
|-3h5-5-5-5-5-5-5-|-3h5-5-5-5-5-5-5-|-3h5-5-5-5-5-5-5-|-5h6-6-6-6-6-6-6-|
|-----------------|-----------------|-----------------|-----------------|
  * * * * * * * *   * * * * * * * *   * * * * * * * *   * * * * * * * *

|-----------------|-----------------|-----------------|-------|
|-----------------|-----------------|-----------------|-------|
|-----------------|-----------------|-----------------|-8-3-3-|
|-----------------|-----------------|-----------------|-8-3-3-|
|-3h5-5-5-5-5-5-5-|-3h5-5-5-5-5-5-5-|-3h5-5-5-5-5-5-5-|-6-1-1-|
|-----------------|-----------------|-----------------|-------|
  * * * * * * * *   * * * * * * * *   * * * * * * * *

|-----------------------------------|-----------------------------------|
|-----------------------------------|-----------------------------------|
|-2-2-2-2--2-2-2-2------------------|-2-2-2-2--2-2-2-2------------------|
|-2-2-2-2--2-2-2-2-3-3-3-3--3-3-3-3-|-2-2-2-2--2-2-2-2-3-3-3-3--3-3-3-3-|
|-0-0-0-0--0-0-0-0-3-3-3-3--3-3-3-3-|-0-0-0-0--0-0-0-0-3-3-3-3--3-3-3-3-|
|------------------3-3-3-3--3-3-3-3-|------------------3-3-3-3--3-3-3-3-|

|-------------|-------------|-----------------|
|-------------|-------------|-----------------|
|-------------|-------------|-----------------|
|-0-0-0-0-----|-0-0-0-0-----|-----------------|
|-0-0-0-0-9p8-|-0-0-0-0-9p8-|-9p8-9p8-9p8-9p8-|
|-0-0-0-0-----|-0-0-0-0-----|-----------------|

|--------------|--------------|--------------|-------|
|--------------|--------------|--------------|-------|
|-----11-10-10-|-----11-10-10-|-----11-10-10-|-----6-|
|-0-0-11-10-10-|-0-0-11-10-10-|-0-0-11-10-10-|-0-0-6-|
|-0-0--9--8--8-|-0-0--9--8--8-|-0-0--9--8--8-|-0-0-4-|
|-0-0----------|-0-0----------|-0-0----------|-0-0---|

|-----------|-----------|-----------|-----------|
|-----------|-----------|-----------|-----------|
|-----8-7-7-|-----8-7-7-|-----8-7-7-|-5-5-5-5---|
|-0-0-8-7-7-|-0-0-8-7-7-|-0-0-8-7-7-|-5-5-5-5-3-|
|-0-0-6-5-5-|-0-0-6-5-5-|-0-0-6-5-5-|-3-3-3-3-3-|
|-0-0-------|-0-0-------|-0-0-------|---------3-|

|---------------|---------------|---------------|---------------|
|---------------|---------------|---------------|---------------|
|---------------|---------------|---------------|---------------|
|---------------|---------------|---------------|---------------|
|---------9-8-8-|---------9-8-8-|---------9-8-8-|---------4-4-4-|
|-0-0-0-0-------|-0-0-0-0-------|-0-0-0-0-------|-0-0-0-0-------|
  * * * * * * *   * * * * * * *   * * * * * * *   * * * * * * *

|---------------|---------------|---------------|---------------|
|---------------|---------------|---------------|---------------|
|---------------|---------------|---------------|---------------|
|---------------|---------------|---------------|---------------|
|---------6-5-5-|---------6-5-5-|---------6-5-5-|---------3-3-3-|
|-0-0-0-0-------|-0-0-0-0-------|-0-0-0-0-------|-0-0-0-0-------|
  * * * * * * *   * * * * * * *   * * * * * * *   * * * * * * *

|---------------|---------------|---------------|---------------|
|---------------|---------------|---------------|---------------|
|---------------|---------------|---------------|---------------|
|---------------|---------------|---------------|---------------|
|---------9-8-8-|---------9-8-8-|---------9-8-8-|---------4-4-4-|
|-0-0-0-0-------|-0-0-0-0-------|-0-0-0-0-------|-0-0-0-0-------|
  * * * * * * *   * * * * * * *   * * * * * * *   * * * * * * *

|---------------|---------------|---------------|---------------|
|---------------|---------------|---------------|---------------|
|---------------|---------------|---------------|---------------|
|---------------|---------------|---------------|---------------|
|---------6-5-5-|---------6-5-5-|---------6-5-5-|---------3-3-3-|
|-0-0-0-0-------|-0-0-0-0-------|-0-0-0-0-------|-0-0-0-0-------|
  * * * * * * *   * * * * * * *   * * * * * * *   * * * * * * *

|---------------|---------------|---------------|---------------|
|---------------|---------------|---------------|---------------|
|---------------|---------------|---------------|---------------|
|---------------|---------------|---------------|---------------|
|-0-0-0-0-9-8-8-|-0-0-0-0-9-8-8-|-0-0-0-0-9-8-8-|-0-0-0-0-4-4-4-|
|-0-0-0-0-------|-0-0-0-0-------|-0-0-0-0-------|-0-0-0-0-------|


|---------------|---------------|---------------|---------------|
|---------------|---------------|---------------|---------------|
|---------------|---------------|---------------|---------------|
|---------------|---------------|---------------|---------------|
|-0-0-0-0-6-5-5-|-0-0-0-0-6-5-5-|-0-0-0-0-6-5-5-|-0-0-0-0-3-3-3-|
|-0-0-0-0-------|-0-0-0-0-------|-0-0-0-0-------|-0-0-0-0-------|

|---------------|---------------|---------------|---------------|
|---------------|---------------|---------------|---------------|
|---------------|---------------|---------------|---------------|
|---------------|---------------|---------------|---------------|
|-0-0-0-0-9-8-8-|-0-0-0-0-9-8-8-|-0-0-0-0-9-8-8-|-0-0-0-0-4-4-4-|
|-0-0-0-0-------|-0-0-0-0-------|-0-0-0-0-------|-0-0-0-0-------|


|---------------|---------------|---------------|-----------|
|---------------|---------------|---------------|-----------|
|---------------|---------------|---------------|-----------|
|---------------|---------------|---------------|---------3-|
|-0-0-0-0-6-5-5-|-0-0-0-0-6-5-5-|-0-0-0-0-6-5-5-|-0-0-0-0-1-|
|-0-0-0-0-------|-0-0-0-0-------|-0-0-0-0-------|-0-0-0-0---|

|-----------------|-----------------|-----------------|-----------------|
|-----------------|-----------------|-----------------|-----------------|
|-----------------|-----------------|-----------------|-----------------|
|-----------------|-----------------|-----------------|-----------------|
|-3h5-5-5-5-5-5-5-|-3h5-5-5-5-5-5-5-|-3h5-5-5-5-5-5-5-|-5h6-6-6-6-6-6-6-|
|-----------------|-----------------|-----------------|-----------------|
  * * * * * * * *   * * * * * * * *   * * * * * * * *   * * * * * * * *

|-----------------|-----------------|-----------------|-------|
|-----------------|-----------------|-----------------|-------|
|-----------------|-----------------|-----------------|-8-3-3-|
|-----------------|-----------------|-----------------|-8-3-3-|
|-3h5-5-5-5-5-5-5-|-3h5-5-5-5-5-5-5-|-3h5-5-5-5-5-5-5-|-6-1-1-|
|-----------------|-----------------|-----------------|-------|
   * * * * * * * *  * * * * * * * *   * * * * * * * *

|-----------------------------------|-----------------------------------|
|-----------------------------------|-----------------------------------|
|-2-2-2-2--2-2-2-2------------------|-2-2-2-2--2-2-2-2------------------|
|-2-2-2-2--2-2-2-2-3-3-3-3--3-3-3-3-|-2-2-2-2--2-2-2-2-3-3-3-3--3-3-3-3-|
|-0-0-0-0--0-0-0-0-3-3-3-3--3-3-3-3-|-0-0-0-0--0-0-0-0-3-3-3-3--3-3-3-3-|
|------------------3-3-3-3--3-3-3-3-|------------------3-3-3-3--3-3-3-3-|

|-0-0-0-0-0-0-0-0-0-0-0-0-|-0-0-0-0-0-0-0-0-0-0-0-0-|
|-5-5-5-5-5-5-5-5-5-5-5-5-|-5-5-5-5-5-5-5-5-5-5-5-5-|
|-2-2-2-2-2-2-2-3-x-x-x-x-|-2-2-2-2-2-2-2-3-x-x-x-x-|
|-0-0-0-0---------3-3-3-3-|-0-0-0-0---------3-3-3-3-|
|-0-0-0-0---------3-3-3-3-|-0-0-0-0---------3-3-3-3-|
|-----------------3-3-3-3-|-----------------3-3-3-3-|

|-0-0-0-0-0-0-0-0-0-0-0-0-|-0-0-0-0-0-0-0-0-0-0-0-0-|
|-5-5-5-5-5-5-5-5-5-5-5-5-|-5-5-5-5-5-5-5-5-5-5-5-5-|
|-2-2-2-2-2-2-2-3-x-x-x-x-|-2-2-2-2-2-2-2-3-x-x-x-x-|
|-0-0-0-0---------3-3-3-3-|-0-0-0-0---------3-3-3-3-|
|-0-0-0-0---------3-3-3-3-|-0-0-0-0---------3-3-3-3-|
|-----------------3-3-3-3-|-----------------3-3-3-3-|


|-----------------------------------|-----------------------------------|
|-----------------------------------|-----------------------------------|
|-2-2-2-2--2-2-2-2------------------|-2-2-2-2--2-2-2-2------------------|
|-2-2-2-2--2-2-2-2-3-3-3-3--3-3-3-3-|-2-2-2-2--2-2-2-2-3-3-3-3--3-3-3-3-|
|-0-0-0-0--0-0-0-0-3-3-3-3--3-3-3-3-|-0-0-0-0--0-0-0-0-3-3-3-3--3-3-3-3-|
|------------------3-3-3-3--3-3-3-3-|------------------3-3-3-3--3-3-3-3-|

|-----------------------------------|-----------------------------------|
|-----------------------------------|-----------------------------------|
|-2-2-2-2--2-2-2-2------------------|-2-2-2-2--2-2-2-2------------------|
|-2-2-2-2--2-2-2-2-3-3-3-3--3-3-3-3-|-2-2-2-2--2-2-2-2-3-3-3-3--3-3-3-3-|
|-0-0-0-0--0-0-0-0-3-3-3-3--3-3-3-3-|-0-0-0-0--0-0-0-0-3-3-3-3--3-3-3-3-|
|------------------3-3-3-3--3-3-3-3-|------------------3-3-3-3--3-3-3-3-|

|-------------------------------------------------------------------------|
|-------------------------------------------------------------------------|
|-------------------------------------------------------------------------|
|-------------------------------------------------------------------------|
|-3h5-5-5-5-5-5-5-5-5-5-5-5-5-5-5-5-3h5-5-5-5-5-5-5-5-5-6-6-6-6-6-6-6-6-6-|
|-------------------------------------------------------------------------|
  * * * * * * * * * * * * * * * * * * * * * * * * * * * * * * * * * * * *

|-----------------------------------------------------------|
|-----------------------------------------------------------|
|-----------------------------------------------------8-3-3-|
|-----------------------------------------------------8-3-3-|
|-3h5-5-5-5-5-5-5-5-5-5-5-5-5-5-5-5-3h5-5-5-5-5-5-5-5-6-1-1-|
|-----------------------------------------------------------|
  * * * * * * * * * * * * * * * * * * * * * * * * * *

|-----------------|-----------------|-----------------|-----------------|
|-----------------|-----------------|-----------------|-----------------|
|-5/7-7-7-7-7-7-7-|-5/7-7-7-7-7-7-7-|-5/7-7-7-7-7-7-7-|-8-8-8-8-8-8-8-8-|
|-5/7-7-7-7-7-7-7-|-5/7-7-7-7-7-7-7-|-5/7-7-7-7-7-7-7-|-8-8-8-8-8-8-8-8-|
|-3/5-5-5-5-5-5-5-|-3/5-5-5-5-5-5-5-|-3/5-5-5-5-5-5-5-|-6-6-6-6-6-6-6-6-|
|-----------------|-----------------|-----------------|-----------------|

|-----------------|-----------------|-----------------|-------|
|-----------------|-----------------|-----------------|-------|
|-5/7-7-7-7-7-7-7-|-5/7-7-7-7-7-7-7-|-5/7-7-7-7-7-7-7-|-8-3-3-|
|-5/7-7-7-7-7-7-7-|-5/7-7-7-7-7-7-7-|-5/7-7-7-7-7-7-7-|-8-3-3-|
|-3/5-5-5-5-5-5-5-|-3/5-5-5-5-5-5-5-|-3/5-5-5-5-5-5-5-|-6-1-1-|
|-----------------|-----------------|-----------------|-------|

|-----------------|-----------------|-----------------|-----------------|
|-----------------|-----------------|-----------------|-----------------|
|-5/7-7-7-7-7-7-7-|-5/7-7-7-7-7-7-7-|-5/7-7-7-7-7-7-7-|-8-8-8-8-8-8-8-8-|
|-5/7-7-7-7-7-7-7-|-5/7-7-7-7-7-7-7-|-5/7-7-7-7-7-7-7-|-8-8-8-8-8-8-8-8-|
|-3/5-5-5-5-5-5-5-|-3/5-5-5-5-5-5-5-|-3/5-5-5-5-5-5-5-|-6-6-6-6-6-6-6-6-|
|-----------------|-----------------|-----------------|-----------------|

|-----------------|-----------------|-----------------|-------|
|-----------------|-----------------|-----------------|-------|
|-5/7-7-7-7-7-7-7-|-5/7-7-7-7-7-7-7-|-5/7-7-7-7-7-7-7-|-8-3-3-|
|-5/7-7-7-7-7-7-7-|-5/7-7-7-7-7-7-7-|-5/7-7-7-7-7-7-7-|-8-3-3-|
|-3/5-5-5-5-5-5-5-|-3/5-5-5-5-5-5-5-|-3/5-5-5-5-5-5-5-|-6-1-1-|
|-----------------|-----------------|-----------------|-------|

|----|
|----|
|-2~-|
|-2~-|
|-0~-|


Important: The song above is NOT stored on the Chordie server. The original song is hosted at www.xguitar.com. Chordie works as a search engine and provides on-the-fly formatting. Chordie does not index songs against artists/composers will. To remove this song please click here.

This song is displayed as text-only. Transposing and tuning is only available for chordpro-songs.

Login - add to songbook

Rating click stars to rate

Layout
Accuracy

SHARE PAGE  




You need to log in to post comments