Guitar Tabs, Chords and Lyrics


An Evening With el Diablo    Chevelle



Author/Artist: Chevelle
Title: An evening with el diablo
Album: wonder what's next
Transcribed by: jason johnson
Email: jgeckoking@hotmail.com

My favorite song on the cd, the bass is very loud and uses distortion also...

Tuning: half a step down (Eb,Ab,Db,Gb,Bb,eb)

Intro: it's all bass until it hits this:

------------------------------------------------------------------------------
------------------------------------------------------------------------------
------------------------------------------------------------------------------
-2----2-----2-5h6-------------------------------------------------------------
-2----2-----2-5h6-------------------------------------------------------------
-0----0-----0-3h4-------------------------------------------------------------

first verse:
------------------------------------------------------------------------------
------------------------------------------------------------------------------
------------------------------------------------------------------------------
-77777777-7-7-7--7777777777-7-7-7--66666666666-6-6-6-666666666666-6-6-6-------
-55555555-5-5-5--5555555555-5-5-5--44444444444-4-4-4-444444444444-4-4-4-------
------------------------------------------------------------------------------
                                                                              

chorus (wish I had your faults...):     
------------------------------------------------------------------------------
------------------------------------------------------------------------------
-77777777-7-7-7--7777777777-7-7-7--66666666666-6-6-6-66666666666-6-6-6--------
-xxxxxxxx-x-x-x--xxxxxxxxxx-x-x-x--xxxxxxxxxxx-x-x-x-xxxxxxxxxxx-x-x-x--------
-55555555-5-5-5--5555555555-5-5-5--44444444444-4-4-4-44444444444-4-4-4--------
------------------------------------------------------------------------------
                                                                              
post-chorus
-------------------------|----|-----------------------------------------------
-------------------------|----|-----------------------------------------------
-------------------------|----|-----------------------------------------------
-------------------------|----|-----------------------------------------------
-------------------4-5-5-|-x2-|-------------------3-4-4-----------------------
-0-0-0-0-0-0-0-0-0-------|----|-0-0-0-0-0-0-0-0-0-----------------------------
                                                                              
outro 1(heard in the background of the bass riff):
------------------------------------------------------------------------------
------------------------------------------------------------------------------
---7--------------------------------------------------------------------------
------7----------------------------------------------------------------------
-5--------------4------------------------------------------------------------
-------------0------0-----------------------------------------------------------
                                                                              
outro 2: 
------------------------------------------------------------------------------
------------------------------------------------------------------------------
------------------------------------------------------------------------------
-x-x-x-x-x-x-x-x-x--x--x--x--x-x-x-x-x-x-x-x-x--x-x---------------------------
-x-x-x-x-x-x-x-x-x--x--x--x--x-x-x-x-x-x-x-x-x--x-x---------------------------


Important: The song above is NOT stored on the Chordie server. The original song is hosted at www.xguitar.com. Chordie works as a search engine and provides on-the-fly formatting. Chordie does not index songs against artists'/composers' will. To remove this song please click here.

This song is displayed as text-only. Transposing and tuning is only available for chordpro-songs.

Login - add to songbook

Rating click stars to rate

Layout
Accuracy

SHARE PAGE  




You need to log in to post comments