Guitar Tabs, Chords and Lyrics


Painting The White To Grey   Chimaira



painting the white to grey
7 string guitar tuned to drop a
/\/\/\= vibrato
h=hammer on
x=scratch
/=slide

||------------------------------------------------------||
||------------------------------------------------------||
||------------------------------------------------------||
||------------------------------------------------------||
||------------------------------------------------------||
||---4-3-3--4-3-3---3--3---3---4-3-3--4-3-3-------------||
||---4-3-3--4-3-3---3--3---3---4-3-3--4-3-3-------------||

||-----------------------------------------------||
||-----------------------------------------------||
||-----------------------------------------------||
||-----------------------------------------------||
||---------------------------------------1-------||
||---------------------------------------1-------||
||-0-1-3---0---4-3-1-0----1-3-0------1-----------||

||----------------------------------------------------------------||
||----------------------------------------------------------------||
||----------------------------------------------------------------||
||----7--------------------------7--------------------------------||
||----6----------------------6--------6-----------5/6-------------||
||----5----------------5------------------5-------4/5-------------||
||----------------------------------------------------------------||
||----------------------------------------------------------------------------||
||----------------------------------------------------------------------------||
||----------------------------------------------------------------------------||
||----------------------------------------------------------------------------||
||-----------------------------------------------------------------------1----||
||-----------------------------------------------------------------------1----||
||--xxxxxxxxxx----0----2-2---0----2---0-----2----0----2----0-----2-3--1-------||

||------------------------------------------------||
||------------------------------------------------||
||------------------------------------------------||
||------------------------------------------------||
||---------------------------------11/\/\---------||
||------------------------------------------------||
||-0-2-2---0-2--0-2---0-0-0-----------------------||
repeat previous part, then back to beginning, then...
||-------------------------------------------||
||-------------------------------------------||
||-------------------------------------------||
||-------------------------------------------||
||-------------------------------------------||
||-----x--------x----------------------------||
||-0h1-x-0--0h1-x-0h1--0h1-----0h1-0h1-------||

||-------------------------------------------||
||-------------------------------------------||
||-------------------------------------------||
||-------------------------------------------||
||----------1------------1-------------------||
||----------1------------1-------------------||
||--0h1--x--1----0h1--x--1-------------------||

build up
||---------------------------------------||
||---------------------------------------||
||---------------------------------------||
||---------------------------------------||
||----7h8--7h8--8-8--7h8-----------------||
||---------------------------------------||
||---------------------------------------||

then
||------------------------------------------------------||
||------------------------------------------------------||
||------------------------------------------------------||
||------------------------------------------------------||
||1-0-0-1---0-0-0--1-0-0--1----0--0-0-0---1-0-0-1-------||
||1-0-0-1---0-0-0--1-0-0--1----0--0-0-0---1-0-0-1-------||
||1-0-0-1---0-0-0--1-0-0--1----0--0-0-0---1-0-0-1-------||
termelo picking on this part. (strum very fast)
||--------------------------------------------------------------------------||
||--------------------------------------------------------------------------||
||--------------------------------------------------------------------------||
||-14-14-14-15-15-15-14-14-14--17-17-17-----15-14-15------------------------||
||--------------------------------------------------------------0-----------||
||-12-12-12-13-13-13-12-12-12--15-15-15-----13-12-13------------0-----------||
||--------------------------------------------------------------0-----------||


Important: The song above is NOT stored on the Chordie server. The original song is hosted at www.xguitar.com. Chordie works as a search engine and provides on-the-fly formatting. Chordie does not index songs against artists'/composers' will. To remove this song please click here.

This song is displayed as text-only. Transposing and tuning is only available for chordpro-songs.

Login - add to songbook

Rating click stars to rate

Layout
Accuracy

SHARE PAGE  




You need to log in to post comments