Beautiful

Christina Aguilera

 G#466544
 Fm      133111 (or use Fm7 131111)

(a = 10th fret)

Intro (Part 1):

 EbBbm6CmB
e|-----------------|-----------------|-----------------|-----------------|
B|-----------------|-----------------|-----------------|-----------------|
G|-----------------|-----------------|-----------------|-----------------|
D|-5---5---5---6-5-|-5---5---5---6-5-|-5---5---5---3-1-|-1---1---1---1---|
A|-6---6---6---6---|-4---4---4---4---|-3---3---3---3---|-2---2---2---2---|
E|---6---6---6-----|---6---6---6-----|---3---3---3-----|---1---1---1---1-|


Intro (Part 2):

 EbBbm6CmB
e|-----------------|-----------------|-----------------|-----------------|
B|-----------------|-----------------|-----------------|-----------------|
G|-----------------|-----------------|-----------------|-----------------|
D|-5---5---5---6-5-|-5---5---5---6-5-|-5---5---5---3-1-|-1---1-3-4-3-1---|
A|-6---6---6---6---|-4---4---4---4---|-3---3---3---3---|-2-------------2-|
E|---6---6---6-----|---6---6---6-----|---3---3---3-----|---1-------------|


Verse:

 EbBbm6CmB
e|-----------------|-----------------|-----------------|-----------------|
B|-----------------|-----------------|-----------------|-----------------|
G|-----------------|-----------------|-----------------|-----------------|
D|-5---5---5---6-5-|-5---5---5---6-5-|-5---5---5---3-1-|-1---1---1---1---|
A|-6---6---6---6---|-4---4---4---4---|-3---3---3---3---|-2---2---2---2---|
E|---6---6---6-----|---6---6---6-----|---3---3---3-----|---1---1---1---1-|


 EbBbm6CmB
e|-----------------|-----------------|-----------------|-----------------|
B|-----------------|-----------------|-----------------|-----------------|
G|-----------------|-----------------|-----------------|-----------------|
D|-5---5---5---6-5-|-5---5---5---6-5-|-5---5---5---3-1-|-1---1---3---1---|
A|-6---6---6---6---|-4---4---4---4---|-3---3---3---3---|-2---2---2---2---|
E|---6---6---6-----|---6---6---6-----|---3---3---3-----|---1---1---1---1-|


Chorus:

 G#FmEbBbm6Cm
e|-----------------|-----------------|-----------------|-----------------|
B|-----------------|-----------------|-----------------|-----------------|
G|-----------------|-----------------|-----------------|-----------------|
D|-1---1---1---1---|-1---1---1---3---|-5---5---5---5---|-1---1---1---3---|
A|-3---3---3---3---|-3---3---3---3---|-6---6---4---4---|-3---3---3---3---|
E|---4---4---4---3-|---1---1---1---1-|---6---6---6---6-|---3---3---3---3-|


 G#FmEbBbm6Cm
e|-----------------|-----------------|-----------------|-----------------|
B|-----------------|-----------------|-----------------|-----------------|
G|-----------------|-----------------|-----------------|-----------------|
D|-1---1---1---1---|-1---1---1---3---|-5---5---5---5---|-1---1---1---3---|
A|-3---3---3---3---|-3---3---3---3---|-6---6---4---4---|-3---3---3---3---|
E|---4---4---4---3-|---1---1---1---1-|---6---6---6---6-|---3---3---3---3-|


 Fm
e|-----------------|
B|-----------------|
G|-----------------|
D|-1---1---1---3---|
A|-3---3---3---3---|
E|---1---1---1---1-|


Middle 8:

 EbBbm6CmB
e|-----------------|-----------------|-----------------|-----------------|
B|-----------------|-----------------|-----------------|-----------------|
G|-3-3-3-3-3-3-3-3-|-3-3-3-3-3-3-3-3-|-----------------|-----------------|
D|-5-5-5-5-5-5-5-5-|-5-5-5-5-5-5-5-5-|-5-5-5-5-5-5-5-5-|-3-3-3-3-3-3-3-3-|
A|-6-6-6-6-6-6-6-6-|-4-4-4-4-4-4-4-4-|-6-6-6-6-6-6-6-6-|-6-6-6-6-6-6-6-6-|
E|-----------------|-----------------|-8-8-8-8-8-8-8-8-|-7-7-7-7-7-7-7-7-|


Structure:

Intro (Part 1) x1
Intro (Part 2) x1
Verse x1
Chorus x1
Intro (Part 2) x1
Verse x1
Middle 8 x2
Chorus x1
Verse (Part 2) x2
End repeating first bar

Matt C. submitted 11-14-03

This is just a rework of the very dead-on tab by hernan_lpar ...I just
transposed it to my voice and a more open chord structure (easier for my limited
guitar ability). Just remember the sus4's are just played to transition between
chords, and only strummed once.

D =xx0232 D7=xx0212 Dsus4=xx0233 D7sus4=xx0213 Gm=355333 G=355433
C7=x35353 Em=022000 Bm=x24432

Intro: D Dsus4 D7 D7sus4 Bm Gm C7 x2

Verse:
 DDsus4D7
     Every day,              is so wonderful
 D7sus4BmGmC7
 And suddenly, it's hard to breathe         
 DDsus4D7
 Now and then,                   I get insecure
 D7sus4BmGmC7
 From all the pain, I'm so ashamed           

Chorus:
 GEm
 I am beautiful, no matter what they say
 DD7Bm
 Words can't bring me down       
 GEm
 I am beautiful, in every single way
 DD7Bm
 Yes words can't bring me down, oh no
 Em
 So don't you bring me down, today

Verse2:
To all your friends, you're delirious
So consumed, in all your doom
Trying hard, to fill the emptiness
The piece is gone, left the puzzle undone,
Ain't that the way it is

Chorus2:
You are beautiful, no matter what they say
Words can't bring you down, oh no
You are beautiful, in every single way
Yes words can't bring you down, oh no
So don't you bring me down, today

Verse:
No matter what we do
No matter what we do
No matter what they say
No matter what they say
When the sun comes shining through
Yeah!
Former clouds won't stay

And everywhere we go
And everywhere we go
The sun will always shine
The sun will always, always shine

chorus3:
'Cos we are beautiful, no matter what they say
Yes words won't bring us down, oh no
We are beautiful, in every single way
Yes words can't bring us down, oh no
So don't you bring me down, today

Don't you bring me down, today
Don't you bring me down, today


B Bbm6 Bm C7 Cm D D7 D7sus4 Dsus4 Eb Em Fm G G# Gm
variations - click chord images
Transpose chords:
Tuning:
Cool service:
View: Size:
A  A  A
Rating:
Layout:
  • Currently 3.4/5 Stars.
  • 1
  • 2
  • 3
  • 4
  • 5
 
Accuracy:
  • Currently 3/5 Stars.
  • 1
  • 2
  • 3
  • 4
  • 5
 
click stars to rate
Chordie recommends:
Learn to play guitar with video-based, online guitar lessons at JamPlay.com
Songbook:
Login to add this song to your songbook
Support the artist
Preview/buy this song
MSN Music
Why this non-profit ad?

 
login to add comments/video/corrections