Chordie logo


Santa's Coming    Cky



Main Riff:

e-------------------------------------------------
b-------------------------------------------------
g-7-------7---7/9\7-----7-------7/9\7-------------
d-7---7---7---------9---7---7---------9--7\5------
a-----7---------------------7----------------7----
e-------------------------------------------------

before verse

e----------------------------------------------------------------
b----------------------------------------------------------------
g-----------------7-7--------------------------------------------
d-----7-7--7--7/9----------7-7--7--9-7-5-5---4-7---4---5vv-------
a-5/9------------------5/9-----------------------5---7------4----
e----------------------------------------------------------------

main riff

Verses

e--------------------------------------------
b--------------------------------------------
g-----------------7-7------------------------
d-----7-7--7--7/9----------7-7--7--9-7-5-5---
a-5/9------------------5/9-------------------
e--------------------------------------------

heavy dist. (on repeats, throw in random p.h.)

e--------------------------------------------
b--------------------------------------------
g--------------------------------------------
d-7----------------0-0-0-0-0-0-0-0-----------
a-5---5-5---7--6---0-0-0-0-0-0-0-0-----------
e-5---5-5---7--6-----------------------------
      pm           pm

next part

e-----------------------------------------------------------------
b-------------------------------------7---------------------------
g-7-9-7-6-7--------7-9-7-6-7--------9---9-8-9-6-6-6--6-7-9-7-6----
d-----------9-9-9------------9-9-9-----------------------------9-7
a-----------------------------------------------------------------


Important: The song above is NOT stored on the Chordie server. The original song is hosted at www.xguitar.com. Chordie works as a search engine and provides on-the-fly formatting. Chordie does not index songs against artists/composers will. To remove this song please click here.

This song is displayed as text-only. Transposing and tuning is only available for chordpro-songs.

Login - add to songbook

Rating click stars to rate

Layout
Accuracy

SHARE PAGE  




You need to log in to post comments