"yes"; ?> Overpowered by Funk by Clash - guitar chords, guitar tabs and lyrics - chordie

Overpowered by Funk

Clash

 E7
E-|------------------------|
B-|-3-3---3---3---3-3------|
G-|-1-1---1---1---1-1------|
D-|-2-2---2---2---2-2------|
A-|-2-2---2---2---2-2------|
E-|------------------------|


Main Riff:

 E11E/Ab
E-|-5-5-5-5-5---5-----5--------5-5-5-5-5---4------|
B-|-5-5-5-5-5---5-----5--------5-5-5-5-5---5------|
G-|-7-7-7-7-7---7-----7--------7-7-7-7-7---4------|
D-|-6-6-6-6-6---6-----6--------6-6-6-6-6---6------|
A-|-7-7-7-7-7---7-----7--------7-7-7-7-7----------|
E-|-----------------------------------------------|


"No one knocking at your door?"

 F7
E-|------------------------------|
B-|-6--6--6----6------6--6--6----|
G-|-8--8--8----8------8--8--8----|
D-|-7--7--7----7------7--7--7----|
A-|-8--8--8----8------8--8--8----|
E-|------------------------------|


 E7Bm7E7
E-|------------7-----------------|
B-|-5--5--5----7------5--5--5----|
G-|-7--7--7----7------7--7--7----|
D-|-6--6--6----7------6--6--6----|
A-|-7--7--7----9------7--7--7----|
E-|------------------------------|


"Combatative,..."

 GbDC#m
E-|-2----------5----------4-------|
B-|-2----------7----------5-------|
G-|-3----------7----------6-------|
D-|-4----------7----------6-------|
A-|-4----------5----------4-------|
E-|-2-----------------------------|


"Car crashed!"

 Bm+5C#m+5Bm+5
E-|-7-7-7---7-7-7-9--9--9---9---9--9--7-7-7-7---7-7--7---------|
B-|-8-8-8---8-8-8-10-10-10--10--10-10-8-8-8-8---8-8--8---------|
G-|-7-7-7---7-7-7-9--9--9---9---9--9--7-7-7-7---7-7--7---------|
D-|-9-9-9---9-9-9-11-11-11--11--11-11-9-9-9-9---9-9--9---------|
A-|------------------------------------------------------------|
E-|------------------------------------------------------------|


"Food for the hungry millions?"

 E7
E-|-----0-0-------------0-0-------------0-0-----------------|
B-|---5-5-5---5-5-----5-5-5---5-5-----5-5-5---5-5-----------|
G-|-7-7-7-7---7-7-7-7-7-7-7---7-7-7-7-7-7-7---7-7--7--------|
D-|-6-6-6-6---6-6-6-6-6-6-6---6-6-6-6-6-6-6---6-6--6--------|
A-|-7-7-7-----7-7-7-7-7-7-----7-7-7-7-7-7-----7-7--7--------|
E-|-0-0---------0-0-0-0---------0-0-0-0---------0--0--------|


"Overdrunk on power..."

E-|--------------------------------------------------------------------|
B-|--------------------------------------------------------------------|
G-|--------------------------------------------------------------------|
D-|--------------------------------------------------------------------|
A-|-0h2-5-0-2-5-0-2-5-0-2-5-----------0h2-5-0-2-5-0-2-5-0-2-5----------|
E-|-------------------------0---0-----------------------------0---0----|
E-|--------------------------------------------------------------------|
B-|--------------------------------------------------------------------|
G-|------------------------2~~~~~~~------------------------------------|
D-|--------------------------------------------------------------------|
A-|-0h2-5-0-2-5-0-2-5-0-2-5-----------0h2-5-0-2-5-0-2-5-0-2-5----------|
E-|-----------------------------------------------------------0---0----|


Enjoy! Please note that the chords and strumming patterns are just basic
representations so feel free to fool around with them. E-mail me if you
have any questions, comments, or corrections.



Bm+5 Bm7 C#m C#m+5 D E/Ab E11 E7 F7 Gb
variations - click chord images
Transpose chords:
Tuning:
Cool service:
View: Size:
A  A  A
Rating:
Layout:
  • Currently 1/5 Stars.
  • 1
  • 2
  • 3
  • 4
  • 5
 
Accuracy:
  • Currently 1/5 Stars.
  • 1
  • 2
  • 3
  • 4
  • 5
 
click stars to rate
Chordie recommends:
Get acoustic guitar lessons and electric guitar lessons at JamPlay.com
Songbook:
Login to add this song to your songbook
Support the artist
Preview/buy this song
MSN Music
Why this non-profit ad?

 
login to add comments/video/corrections