Chordie logo

Anything But You   Coal Chamber



Band: Coal Chamber
Song: Anything but you
By Jonathan Bissonnette

Tuning B E A D G B

Verse w/chorus

|------------------------|
|------------------------|
|------------------------|
|------------------------|
|-7-8-10-8-7-5-5-3-5-7-7-|
|------------------------|

Chorus

|-------------------------------------------------|
|-------------------------------------------------|
|-------------------------------------------------|
|-------------------------------------------------|
|-9-9/10-10/12-12\10-10\9-9-9-9\7-7-7-7/9-9-9-9\7-|
|-7-7/8--8 /10-10\8--8 \7-7-7-7\5-5-5-5/7-7-7-7\5-|

Interlude

|------------------------|
|------------------------|
|------------------------|
|------------------------|
|-2-2--2-2--2-2--2-3-5-3-|
|-0-0--0-0--0-0--0-1-3-1-|

Bridge

|------------------------|
|------------------------|
|------------------------|
|------------------------|
|-2-2-10-10-9-9-9-10-9-2-|


Important: The song above is NOT stored on the Chordie server. The original song is hosted at www.xguitar.com. Chordie works as a search engine and provides on-the-fly formatting. Chordie does not index songs against artists/composers will. To remove this song please click here.

This song is displayed as text-only. Transposing and tuning is only available for chordpro-songs.

Login - add to songbook

Rating click stars to rate

Layout
Accuracy

SHARE PAGE  



You need to log in to post comments