Chordie logo

Oddity   Coal Chamber



"Oddity"
By Coal Chamber as preformed on "Coal Chamber"

Tabbed by puppet@antisocialism.com (ICQ# 2517000)
http://www.antisocialism.com/coalchamber
Intro: Palm muting
E--------------------------------------|-------
B--------------------------------------|-------
G--------------------------------------|-------
D-00-0-2-00-0-2-0--2-------------------|--00---
A-00-0-2-00-0-2-0--2--play three times-|--00---
E-00-0-2-00-0-2-0--2-------------------|--00---

Intro2: No palm muting
E--------------------
B--------------------
G--------------------
D-00-0-2-00-0-2-0--2-
A-00-0-2-00-0-2-0--2-
E-00-0-2-00-0-2-0--2-

G-5555555555555555555

Verse, palm muting
E---------------------------
B---------------------------
G---------------------------
D-0--------------------00---
A-0--------------------00---
E-0--------------------00---

Chorus "seems to me"
E--------------------
B--------------------
G--------------------
D-00-0-2-00-0-2-0--2-
A-00-0-2-00-0-2-0--2-
E-00-0-2-00-0-2-0--2-

Chorus "this is the way"
E----------------------
B----------------------
G----------------------
D-0-h2-0-h2-0-h2-------
A-0-h2-0-h2-0-h2-------
E-0-h2-0-h2-0-h2-------

E-2~~~~~-------
B-2~~~~~-------
G-2~~~~~-------
D-2~~~~~-------

Bridge
D-1/2-0-000-2--0-----------------
A-1/2-0-000-2--0--play four times
E-1/2-0-000-2--0-----------------

D-0--2-0--0-2-3---------------------------
A-0--2-0--0-2-3--play eight times---------
E-0--2-0--0-2-3---------------------------


Important: The song above is NOT stored on the Chordie server. The original song is hosted at www.xguitar.com. Chordie works as a search engine and provides on-the-fly formatting. Chordie does not index songs against artists/composers will. To remove this song please click here.

This song is displayed as text-only. Transposing and tuning is only available for chordpro-songs.

Login - add to songbook

Rating click stars to rate

Layout
Accuracy

SHARE PAGE  

You need to log in to post comments