Chordie logo

Crossing the Frame    Coheed and Cambria



Title: Crossing the Frame
Artist: Coheed & Cambria
Album: Good Apollo I'm Burning Star IV, Volume 1: From Fear Through
 The Eyes of Madness

Copyright © Columbia Records 2005
Verion 1.0 - 09/03/2005 - Original Tab

Tabbed by: Chris Frazier (cdf0103@mail.ecu.edu)

Alright, here's another track from Good Apollo. It's a very fun one
to play with lots of start and stop palm muting going on. Just pay
close attention to the rhythm Claudio and Travis lock into and it's
pretty fun to play along with.

If anybody has any question, comments, or corrections PLEASE send them to
me at cdf0103@mail.ecu.edu and you'll be sure to get FULL CREDIT for
anything you submit to me.


.  - palm mute
/  - slide up and down to
b  - Bend
() - Natural harmonics
*  - Pinch harmonics
h  - Hammer
p  - Pull off
"  - Tremolo Picking
x  - Mute
... - keep playing last chord at steady pace

Guitar I; Electric, Left Speaker (Eb Ab Db Gb Bb Eb)
Guitar II; Electric, Right Speaker (Eb Ab Db Gb Bb Eb)

Phase I (Guitar I)
E|-----------||---------------||
B|-----------||---------------||
G|-----------||---------------||
D|-----------||-------7-4-----||
A|-9-7--7--7-||-----5-----5---||
E|-7-5--5--5-||-5-7---------7-||
   . .  .       . . . . . . .

Phase I (Guitar II)
E|-10-9------/12--10-9-7--9--||-10-9------10-9-7-9----||-10-9------14b-12-10-9h10p9--7h9-||
B|------10-7-----------------||------10-7----------10-||------10-7-----------------------||
G|---------------------------||-----------------------||---------------------------------||
D|---------------------------||-----------------------||---------------------------------||
A|---------------------------||-----------------------||---------------------------------||
E|---------------------------||-----------------------||---------------------------------||

Phase II (Guitar I)
E|---------------------------||
B|---------------------------||
G|---------------------------||
D|---------4---------7-4-----||
A|------5----7-----5-----5---||
E|-7-5---------5-7---------7-||
   . .  .  . . . . . . . . .

Phase II (Guitar II)
E|------------------------------||
B|------------------------------||
G|--------/11-9--9p7p6h7p6------||
D|-9-7--7-------------------9-7-||
A|------------------------------||
E|------------------------------||

Phase III (Guitar I and II)
E|---||------------------------||------------------------||
B|---||------------------------||------------------------||
G|---||------------------------||------------------------||
D|---||----4-------------------||-----4------------------||
A|-9-||-7----5----5-5--9-9-9-7-||-7-----5----5-7-9-12-12-||
E|-7-||-5------7--3-3--7-7-7-5-||-5-------7--3-5-7-10-10-||
        .         . .        .    .          . . .

Phase IV (Guitar I)
E|------------||------------||---------------||--------||
B|------------||------------||---------------||--------||
G|------------||------------||---------------||--------||
D|------------||------------||---------------||--------||
A|-5-...-2--2-||-------2-0--||-------2-0h2p0-||-2--2-2-||
E|-3-...-0--0-||-0-2-3------||-0-2-3---------||-0--0-0-||
         .  .    . . . .       . . . .          .  . .

Phase IV (Guitar II)
E|-------------||-----------------------------||---------------------||
B|-------------||-----------8-7---------------||-----------8-7---7---||
G|-----7h9p7---||-----7h9p7-------------------||-----7h9p7-----9---9-||
D|-7-9-------9-||-7-9-------------------------||-7-9-----------------||
A|-------------||---------------------2-0h2p0-||---------------------||
E|-------------||---------------0-2-3---------||---------------------||

Phase V (Guitar I)
E|-----------5-3------------------------------||
B|-------5-7-----7-5------------5-7-10-8-7--8-||
G|-4-6-7-------------7-6--4-6-7---------------||
D|--------------------------------------------||
A|--------------------------------------------||
E|--------------------------------------------||

Phase VI (Guitar I)
E|-------------------------------||

B|-------------------------------||
G|-------------------------------||
D|-7-...-------6-...-------------||
A|-5-...-7-...-4-...-7-...-5-...-||
E|-------5-...-------5-...-3-...-||

Phase VI (Guitar II)
E|-----------14-12------------------------14-12---------------------14-12--------------------------||
B|-15--14-15-------15-14-12-----15--14-15-------15-14-12--15--14-15-------15-14-12-----------------||
G|--------------------------14---------------------------------------------------------7---6-------||
D|---------------------------------------------------------------------------------------------7---||
A|-------------------------------------------------------------------------------------------------||
E|-------------------------------------------------------------------------------------------------||

Phase VI (Guitar II)
E|-----------5-3--------------------5-3-------||
B|-------5-7-----7-5------------5-7-----7-5---||
G|-4-6-7-------------7-6--4-6-7-------------7-|| Let that last 7 ring
D|--------------------------------------------||
A|--------------------------------------------||
E|--------------------------------------------||

Phase VII (Guitar I and II)
E|------------------------------------||
B|------------------------------------||
G|------------------------------------||
D|-----4------------------------------||
A|-7-----5----5-7-9-12-5-7-9-12-12-12-||
E|-5-------7--3-5-7-10-3-5-7-10-10-10-||
   .          . . . .  . . .

Phase VIII (Guitar I and II)
E|---------------||
B|---------------||
G|---------------||
D|---------------||
A|-------2-0---5-||
E|-0-2-3-----3-3-||


Important: The song above is NOT stored on the Chordie server. The original song is hosted at www.xguitar.com. Chordie works as a search engine and provides on-the-fly formatting. Chordie does not index songs against artists/composers will. To remove this song please click here.

This song is displayed as text-only. Transposing and tuning is only available for chordpro-songs.

Login - add to songbook

Rating click stars to rate

Layout
Accuracy

SHARE PAGE  

You need to log in to post comments