Guitar Tabs, Chords and Lyrics


Wake Up   Coheed and Cambria

E|---3--------3------------0------------||


B|-----1--------1--------1--------1-3p1-||


G|-------0--------0----0--------0-------||

D|-------------------2--------0---------||
A|-3--------3---------------------------||
E|--------------------------------------||
E|----3---5---3---||
B|-1--------------||
G|----------------||
D|----------------||
A|----------------||
E|----------------||
E|------------------------3---3---3-3p0-----1---1---1-1p0-----1---1-----0---0-||-----------------------3---3---3-3p0----1---1---1-1p0-----||
B|----------------------------------------------------------------------------||----------------------------------------------------------||
G|--------0----0--------------------------2---2---2-------2-----------2---2---||-------0----0-------------------------2---2---2-----------||
D|------0----2----2-0---------------------------------------3---3---3---------||-----0----2----2-0--------------------------------------3-||
A|-0h2----------------3-----3---3---------------------------------------------||-0h2---------------3-----3---3----------------------------||
E|----------------------------------------------------------------------------||----------------------------------------------------------||
E|-8/10/8--------------------||
B|--------8/10/8--8/10/13/10-||
G|---------------------------||
D|---------------------------||
A|---------------------------||
E|---------------------------||
[F]I'm goning to right this [C]plain out [G]of your life again,
[F]I wish that I could [C]stay but you [G]argue,
[F]And more than this I [C]wish you [G]could have seen my face,
[F]In backseats starring [C]out the [G]window,
[F]I'll do anything for [C]you,   [G]
[F]Kill anyone for [C]you,   [G]
[F]So leave yourself in[C]tact,
Cause I [G]will be coming [F]back,
In a phrase to cut theses [C]lips,
I [G]love you.
CHORUS
[C]The morning will [F]come,
[Dm]In the press of every kiss,
With your [F]head upon my chest,
[C]Where I will an[F]noy you,
[Dm]With every waking breath,
Untill [F]you decide to wake up.


VERSE 2
[F]I've learned through hope of [C]faith in the [G]curves around your face,
[F]That I'm the one you [C]hold [G]forever,
[F]If morning never [C]comes for [G]either one of us,
[F]Then this I pray to [C]you where [G]ever,
[F]I'll do anything for [C]you,   [G]
[F]This story is for [C]you,   [G]
[F]I'd do anything for [C]you,  [G]
[F]Kill anyone for [C]you,  [G]
[F]So leave yourself in[C]tact,
Cause I [G]won't be coming [F]back,
In a phrase to cut theses [C]lips,
I [G]loved you.


CHORUS
[C]The morning will [F]come,
[Dm]In the press of every kiss,
With your [F]head upon my chest,
[C]Where I will an[F]noy you,
[Dm]With every waking breath,
Untill [F]you decide to wake up.

Important: The song above is NOT stored on the Chordie server. The original song is hosted at www.xguitar.com. Chordie works as a search engine and provides on-the-fly formatting. Chordie does not index songs against artists'/composers' will. To remove this song please click here.

Text color:
Chord color:
Chord grids: 
Font size:    
Page size: 

C Dm F G
variations - click chord images

Login - add to songbook

Transpose chords

Tuning

Rating click stars to rate

Layout
Accuracy

SHARE PAGE  




You need to log in to post comments