Guitar Tabs, Chords and Lyrics


The Willing Well: I - Fuel for the Feeding End    Coheed and Cambria



Band: Coheed and Cambria
Song: Willing Well I: Fuel for the Feeding End
Steinface @ Cobalt and Calcium




"Is this what I wish for those and all they know. . ."

Claudio
Eb|-------------------------|-----------------------------|
Bb|-------------------------|-----------------------------|
Gb|-------------------------|-----------------------------|
Db|-------------------------|-----------------------0h3p0-|
Ab|-6-5-000--66-33--3-1-0---|-6-5-000--66-3p0-3h55--------|
Eb|-------------------------|-----------------------------|

Eb|-------------------------|-----------------------------|
Bb|-------------------------|-----------------------------|
Gb|-------------------------|-----------------------------|
Db|-------------------------|------------------5-7--------|
Ab|-6-5-000--66-33--3-1-0---|-6-5-000--66-3p0--3-5--------|
Eb|-------------------------|-----------------------------|

Travis
Eb|-------------------------|-----------------------------|
Bb|-------------------------|-----------------------------|
Gb|-------------------------|-----------------------------|
Db|-------------------------|-----------------------------|
Ab|-0-3/5-5/7--66-33--------|0-3/5-5/7--66-3p0------------|
Eb|------------------3-4-5--|-----------------------------|




"Hey now hey now what is it boy?. . "

Claudio
Eb|-------------------------------------------------------------------|
Bb|-------------------------------------------------------------------|
Gb|------------------------------------------------------------4-6----|
Db|-4-2-0-------------4-2-0-----------4-2-0--------------------2-4----|
Ab|-------4-2-0-------------4-2-0-----------5-4-0-5-4-0-5-4-0---------|
Eb|-------------0-----------------0-----------------------------------|

Eb|-------------------------------------------------------------------|
Bb|-------------------------------------------------------------------|
Gb|-------------------------------------------------------------------|
Db|-4-2-0-------------4-2-0-----------4-2-0-------------99--77-9-5----|
Ab|-------4-2-0-------------4-2-0-----------4-2-0-------77--55-7-3----|
Eb|-------------0-----------------0---------------0-------------------|

Travis
Eb|----------------------------------------------------|---|---------|
Bb|--2-3-5-2-3-----2-3-5-2-3-----2-3-5-2-3--2----------|---|---------|
Gb|-2---------4---2---------4---2---------4---2-4-1h2--|4-6|---------|
Db|----------------------------------------------------|2-4|99-77-9-5|
Ab|----------------------------------------------------|---|77-55-7-3|
Eb|----------------------------------------------------|---|---------|


"I wont rest till death, till death do you part" / "I only hope you know that I love you"

                             1st      2nd
Claudio/Travis                       "Oh I Dohoohwhoawoooooooont..."
Eb|------------------------|--------|------------------------------|
Bb|------------------------|--------|------------------------------|
Gb|------------------------|--4-6---|------------------------------|
Db|-4-4...-2...------------|--2-4---|------------------------------|
Ab|-0h2...-0...-4...--5...-|--------|-5-4-0-5-4-0-5-4-0-5-4-0-5-4-0|
Eb|-------------2...--3...-|--------|------------------------------|


"Feed little maggot..."
Claudio/Travis                  Last time
Eb|----------------------------|-----------------------|
Bb|----------------------------|-----------------------|
Gb|----------------------------|-----------------------|
Db|---------------------4540---|-----------------------|
Ab|-44-44-44-44-22-22----------|--2...-5......---------|
Eb|-22-22-22-22-00-00-33-----0-|--0...-3......---------|



Claudio/Travis
Eb|----------------------|--------------------------------------------|
Bb|----------------------|--------------------------------------------|
Gb|----------------------|--------------------------------------------|
Db|-7...-----------------|7..7-7..7-----------------------------------|
Ab|-5...-9...-7...-5...--|5..5-5..5--9..9-9..9--7..7-7..7--5..5-5..5--|
Eb|------7...-5...-3...--|-----------7..7-7..7--5..5-5..5--3..3-3..3--|


"Why would you deny me answers?"            "...was it better before me?"
Claudio                                                       \/
Eb|-----------------------------------------------------------|------|
Bb|-----------------------------------------------------------|------|
Gb|-----------------------------------------------------------|------|
Db|-88\--88\--88\--88-88--------------------------------------|------|
Ab|-66\--66\--66\--66-66----55-------55-------55-------55-55--|8-----|
Eb|-------------------------33-*****-33-*****-33-*****-33-33--|6-----|

Travis
Eb|-----------------------------------------------------------|------|
Bb|-----------------------------------------------------------|------|
Gb|-14b(15)r14------------------------------------------------|------|
Db|-----------------------------------------------------------|13/12-|
Ab|-----------------------------------------------------------|------|
Eb|-----------------------------------------------------------|------|


"The curve of your body..."
Claudio
Eb|-----------------------------------------------------------------------|
Bb|-----------------------------------------------------------------------|
Gb|-----------------------------------------------------------------------|
Db|-8\---77-777-777-777-777-777-777-777-----------------------------------|
Ab|-6\---55-555-555-555-555-555-555-555--88-888-888-888-888-888-888-888---|
Eb|--------------------------------------66-666-666-666-666-666-666-666---|

Travis          1st and 3rd                     2nd
Eb|------------|-------17-----17-----17--------|----------------------|
Bb|--------15--|--13h15--15/17--17h18--18-15\\-|-15p13-----15p13------|
Gb|------------|-------------------------------|------14p12-----14\\--|
Db|-17b(19)----|-------------------------------|----------------------|
Ab|------------|-------------------------------|----------------------|
Eb|------------|-------------------------------|----------------------|


"The better end of all to come. . ."
Claudio
Eb|----------------------------------|
Eb|-2...0...3...2...--2............--|
Gb|-2...2...2...2...--2............--|
Db|-2...2...2...2...--0............--|
Ab|-0...0...0...0...-----------------|
Eb|----------------------------------|

Travis                                     Last time
Eb|---------------------------------------|-----------------------------|
Bb|--------17-----------------------------|-------17------17------------|
Gb|-16b(18)---(18)r16-14-16p14--------14--|16b(18)--16(18)--(18)r16-14--|
Db|---------------------------16-14-16----|-----------------------------|
Ab|---------------------------------------|-----------------------------|
Eb|---------------------------------------|-----------------------------|

Solo Breakdown
Travis
Eb|----------------------------------------------------5-5-5-------|
Bb|-------------------23-23-2h3p2p0--------------------8-8-8-------|
Gb|----------------------------------------------------7-7-7-------|
Db|---------------------------------------------77-77--5-5-5-------|
Ab|-55-55-55-55-55-55---------------55-55-55-55-55-55--------------|
Eb|-33-33-33-33-33-33---------------33-33-33-33--------------------|
Claudio
Eb|------------------------------------------------------------------------------|
Bb|------------------------------------------------------------------------------|
Gb|-/14----------------11-12-11--------11-11----/14--------11-12-11-------11-11--|
Db|----12---------12-14--------14-12-14------------12----14--------14-12-14------|
Ab|------12------------------------------------------12--------------------------|
Eb|------------------------------------------------------------------------------|
Harmony
Eb|------------------------------------------------------------------------------|
Bb|------------------------------------------------------------------------------|
Gb|------------------6-7-9-7-6---6-7-7---------------------6-7-9-7-6---6-7-7-----|
Db|-/7-------------9-----------9----------------/7-------------------9-----------|
Ab|----5-------------------------------------------5-----------------------------|
Eb|-----5--------------------------------------------5---------------------------|


Eb|------------------------------------------------------------------7-----------------------------|
Bb|------15---------------------------------------------------------7--10-10b(12)10-8--------8-10*-|
Gb|-14/16--16\12-----11-12-14-12-11--11----------------7-7*---9b(11)------------------11-9-11------|
Db|-------------12-----------------14--12---------7-7-9----9---------------------------------------|
Ab|------------------------------------------5-7/9-------------------------------------------------|
Eb|------------------------------------------------------------------------------------------------|

Eb|-----14-15-17-15-14--12-12--14------------------------------------------------------------------------|
Bb|---15--------------15-----15--15----------------------------------------------------------------------|
Gb|-14----------------------------------------11---------------------------------------------------------|
Db|--------------------------------------12-14---14b(16)r14-12*-12*--------------------------------------|
Ab|-----------------------------------/14-------------------------14-12-12(14)r12p10-9-10-9--------------|
Eb|-----------------------------------------------------------------------------------------10-10/12\10--|




"Watching his tale, with the words he unfolds..."
Claudio/Travis
Eb|--------------------------|
Bb|----------------------22--|
Gb|-22-22-22-66-11-22-44-44--|
Db|-00-00-00-44-22-22-22-22--|
Ab|-00-00-00-00--------------|
Eb|----22--------------------|


"Could this be that hard for me?"
Claudio
Eb|----------------------------------------------------|
Bb|----------------------------------------------------|
Gb|----------------------------------------------------|
Db|-77-77777-77777-77777-777---------------------------|
Ab|-55-55555-55555-55555-555-77-77777-77777-77777-777--|
Eb|--------------------------55-55555-55555-55555-555--|

Travis 1st
Eb|-------------------------------------------------------|
Bb|-------------------------------------------------------|
Gb|-11p9---9----------------------------------------------|
Db|-----11--9h11-9--------------------12-11-9--9--------9-|
Ab|---------------12-11-12-9-9p7h9-7---------12-12-11-12--|
Eb|-------------------------------------------------------|
Travis 2nd
Eb|---------------------------------------------------------------|
Bb|---------------------------------------------------------------|
Gb|-11p9---9------------------------------------------------------|
Db|-----11--9h11-9---------------------------12-11-9--9---------9-|
Ab|---------------12-11-12p11p9-11p9\7-9-7-9--------12--12-11-12--|
Eb|---------------------------------------------------------------|

"No one is safe"/"I will not save. . ."
Claudio
Eb|--------------------------------------------------------|
Bb|--------------------------------------------------------|
Gb|--------------------------------------------------------|
Db|----------------------------77-77777-77777-77777-77777--|
Ab|-55-55555-55555-55555-55555-55-55555-55555-55555-55555--|
Eb|-33-33333-33333-33333-33333-----------------------------|

Travis
Eb|-----9-12p10p9------------------------------------------|
Bb|---10---------12-10-12--10---------/14-12---------------|
Gb|-11-------------------11--9-11------------11------------|
Db|-------------------------------11-----------------------|
Ab|--------------------------------------------------------|
Eb|--------------------------------------------------------|

"Your world"
Claudio/Travis
Eb|----------|
Bb|----------|
Gb|----------|
Db|----------|
Ab|-4--2--5--|
Eb|-2--0--3--|





Important: The song above is NOT stored on the Chordie server. The original song is hosted at www.xguitar.com. Chordie works as a search engine and provides on-the-fly formatting. Chordie does not index songs against artists'/composers' will. To remove this song please click here.

This song is displayed as text-only. Transposing and tuning is only available for chordpro-songs.

Login - add to songbook

Rating click stars to rate

Layout
Accuracy

SHARE PAGE  




You need to log in to post comments