Guitar Tabs, Chords and Lyrics


The Willing Well: II - From Fear Through the Eyes of Madness    Coheed and Cambria



Title: The Willing Well II: From Fear Through The Eyes of Madness
Artist: Coheed & Cambria
Album: Good Apollo I'm Burning Star IV, Volume 1: From Fear Through
 The Eyes of Madness

Copyright © Columbia Records 2005
Version 2.0 - 08/13/2005 - Added chord to Phase VI
    Version 1.0 - 08/09/2005 - Original Tab

Tabbed by: Chris Frazier (cdf0103@mail.ecu.edu)
Help from: Larry Jones
		Pointed out a missing chord in Phase VI

Alright, so this is a track I snagged from a 3 track promo that also
contained Welcome Home and Wake Up. I think this is a fairly accurate
tab for a very different kind of Coheed song. Expect to see a tab for
Wake Up very soon.
Enjoy!

If anybody has any question, comments, or corrections PLEASE send them to
me at cdf0103@mail.ecu.edu and you'll be sure to get FULL CREDIT for
anything you submit to me.

.  - palm mute
/  - slide up and down to
b  - Bend
() - Natural harmonics
*  - Pinch harmonics
h  - Hammer
p  - Pull off
"  - Tremolo Picking
x  - Mute
... - keep playing last chord at steady pace

Guitar I; Acoustic, Rhythm (Left) (Eb Ab Db Gb Bb Eb)
Guitar II; Electric Slightly Distorted, Lead (Right) (Eb Ab Db Gb Bb Eb)
Guitar III; Electric Heavily Distorted, Rhythm (Left) (Eb Ab Db Gb Bb Eb)
Guitar IV; Electric Heavily Distorted, Lead (Right) (Eb Ab Db Gb Bb Eb)
Guitar V; Electric Slightly Distorted, Rhythm (Left) (Eb Ab Db Gb Bb Eb)
Guitar VI; Electric Clean, Lead (Right) (Eb Ab Db Gb Bb Eb)

Phase I (Guitar I)
E|---2--2---2--2---0--0--5-----||
B|---3--3---3--3---1--1----5---||
G|---2--2---2--2---0--0------6-||
D|-0---------------------------||
A|--------4------3-------------||
E|-----------------------------||

Phase I (Guitar II)
E|-----------------------------------------------||
B|-----------------------------------------------||
G|-------7--7-6-4---6--6-5-4-0-5--5--5-4---4-----||
D|-4-5-7----------7----------------------7---7-5-||
A|-----------------------------------------------||
E|-----------------------------------------------||

Phase II (Guitar III)
E|---------------||---------||-------||-------||
B|---------------||---------||-------||-------|| Part 1 x2 \
G|---------------||---------||-------||-------|| Part 2 x4  ]-x2 then... Part 4 x1
D|---------------||---------||-7-7-7-||-------|| Part 3 x1 /
A|-9-------------||-------5-||-4-4-4-||-2-0---||
E|-7-----------0-||-0-3-5---||-------||-------||
                    . . . .

Phase II (Guitar IV)
E|-------------------------||-----------||-------||-------||
B|-------------------------||-----------||-------||-------|| Part 1 x2 \
G|-------------------------||-7-6-4-----||-7-7-7-||-4-2---|| Part 2 x4  ]-x2 then... Part 4 x1
D|-----7-5-4-5--4---4------||-------7-5-||-x-x-x-||-------|| Part 3 x1 /
A|---5------------7----7-5-||-----------||-4-4-4-||-------||
E|-7-----------------------||-----------||-------||-------||

Phase III (Guitar III)
E|---------------||---------||-------||---------------||
B|---------------||---------||-------||---------------|| Part 1 x2 \
G|---------------||---------||-------||---------------|| Part 2 x4  ]-x2 then... Part 4 x1
D|---------------||---------||-7-7-7-||-7-7-6---4-----|| Part 3 x1 /
A|-9-------------||-------5-||-4-4-4-||-4-5-4p0-2p0---||
E|-7-----------0-||-0-3-5---||-------||---------------||
                    . . . .

Phase III (Guitar IV)
E|-------------------------||-----------||-------||---------------||
B|-------------------------||-----------||-------||---------------|| Part 1 x2 \
G|-------------------------||-7-6-4-----||-7-7-7-||-6-7-6p2-4-2---|| Part 2 x4  ]-x2 then... Part 4 x1
D|-----7-5-4-5--4---4------||-------7-5-||-x-x-x-||---------------|| Part 3 x1 /
A|---5------------7----7-5-||-----------||-4-4-4-||---------------||
E|-7-----------------------||-----------||-------||---------------||

Phase IV (Guitar V first time, Guitar III all others)
E|------------------------------------------------||
B|------------------------------------------------||
G|-----------11-...-------------------------------|| Palm mute first time through
D|-----------x--...-------------7-7-7-6-6-6-------||
A|-7-9-9-...-9--...-9-...-5-5-5-5-5-5-4-4-4-7-7-7-||
E|-5-7-7-...-7--...-7-...-3-3-3-------------5-5-5-||

Phase IV Part I (Guitar VI)
E|----10-9-------------/15-14-10--------||
B|------------10/12--------------12-12/-||
G|-11-----------------------------------|| slide the last 12 down towards 0
D|--------------------------------------||
A|--------------------------------------||
E|--------------------------------------||

Phase V (Guitar III)
E|-------------------------------||
B|-------------------------------||
G|-------------------------------||
D|-------7-...-------7-...-------||
A|-9-...-5-...-5-...-5-...-7-...-||
E|-7-...-------3-...-------5-...-||

Phase V (Guitar VI)
E|------------------------------15/14p10---12---10---9-----------||
B|-------------------------------------------------------10/12---||
G|-9-9-9-9-7---9-9-9-9-7-6---------------------------------------||
D|-------------------------9-------------------------------------||
A|---------------------------------------------------------------||
E|---------------------------------------------------------------||

Phase VI (Guitar III)
E|------------------------------------------------||
B|------------------------------------------------||
G|------------------------------------------------|| x2
D|------------------------------7-7-7-6-6-6-------||
A|-9-9-9-9----9-9-9-9-9-9-5-5-5-5-5-5-4-4-4-7-7-7-||
E|-7-7-7-7----7-7-7-7-7-7-3-3-3-------------5-5-5-||
         .

Phase VI (Guitar IV)
E|--------------------------------------------------------------------||
B|--------------------------------------------------------------------||
G|------------------------------------------------------------12/-----||
D|------------------------------7-7-7-6-6-6---------------------------||
A|-9-9-9-9----9-9-9-9-9-9-5-5-5-5-5-5-4-4-4-7-7-7---------------------||
E|-7-7-7-7----7-7-7-7-7-7-3-3-3-------------5-5-5---------------------||
         .

Phase VII (Guitar III)
E|-------------||
B|-------------||
G|-------------||
D|-------------||
A|-4-...-7-...-||
E|-2-...-5-...-||

Phase VII Part I (Guitar IV)
E|-------------------------------------------------|-------------------------------------------------|
B|-------------------------------------------------|-------------------------------------------------|
G|-------------------------------------------------|-------------------------------------------------|
D|-------------------2-2-2-------------------------|-------------------5-5-5-------------------------|
A|-------4-4-4-5-5-5-------4-4-4-2-2-2-5-5-5-5-4-2-|-------7-7-7-8-8-8-------7-7-7-5-5-5-8-8-8-8-7-5-|
E|-2-2-2-------------------------------------------|-5-5-5-------------------------------------------|

Phase VII Part I (Guitar IV)
E|----------------------------------------12b--|----------------------------12b-12b-12b-12b-||
B|----------------------8-8-8------------------|----------------------8-8-8-----------------||
G|-------9-9-9-10-10-10-------9-9-9-7-7-7------|-------9-9-9-10-10-10-----------------------||
D|-7-7-7---------------------------------------|-7-7-7--------------------------------------||
A|---------------------------------------------|--------------------------------------------||
E|---------------------------------------------|--------------------------------------------||


 In above riff, play pt. 1 twice, 2 once, then the first pt.
 of this riff once. pt. 1 twice, 2 once, then the second pt.
 of this riff once.

Theres also a harmonic slide that's been dubbed over top of this riff, I'm not sure which string it's on but I
believe it's either the high Eb string, from 12 down tremelo pick harmonics as you slide down the fretboard.

Phase VIII (Guitar III)
E|-------------------------------------------------------------|
B|-------------------------------------------------------------|
G|-------------------------------------7-5-4-------7-5-4-------|
D|-5--5--5--5--4--4--4--4--------------------7-5-4-------7-5-4-|
A|-3--3--3--3--2--2--2--2--4--4--4--4--------------------------|
E|-------------------------2--2--2--2--------------------------|
   .  .  .  .  .  .  .  .  .  .  .  .

-------------------------------------------------------||
-------------------------------------------------------|| Part 1 x1
-------------------------------------7--5--4-----------|| Part 2 x1
-5--5--5--5--4--4--4--4-----------------------7--5--4--|| Part 1 x1
-3--3--3--3--2--2--2--2--4--4--4--4--------------------|| Part 2 x1
-------------------------2--2--2--2--------------------||
 .  .  .  .  .  .  .  .  .  .  .  .


Phase VIII (Guitar IV)
E|----------------------------------------------|----------------------------------------------|
B|----------------------------------------------|-------7-5---5--7b---7-8-7--------------------|
G|-0----2h4p0-----------7-5-4-------7-5-4-------|-0h5h7-----7----------------7--5--4-----------|
D|-------------4--2h4---------7-5-4-------7-5-4-|-------------------------------------7--5--4--|
A|----------------------------------------------|----------------------------------------------|
E|----------------------------------------------|----------------------------------------------|

----------------9b--9-9b-----------------------|| Pt. 1 x1
-------7-5---5---------------------------------|| Pt. 2 x1
-0h5h7-----7--------------7--5--4--------------|| Pt. 1 x1
-----------------------------------7--5--4--5--|| Pt. 3 x1
-----------------------------------------------||
-----------------------------------------------||

Phase IX (Guitar)
E|------------||
B|------------||
G|------------||
D|------------||
A|------------||
E|-0-0-...-0/-||

Phase X (Guitars III and IV)
E|--------------------------------------------------------------------||
B|--------------------------------------------------------------------||
G|--------------------------------------------------------------------||
D|--------------------------------------------------------------------||
A|-4-4-4-4--4-4-4-4--4-4-4-4---------4-4-4-4--4-4-4-4--4-4-4-4--------||
E|-2-2-2-2--2-2-2-2--2-2-2-2--5-4-0--2-2-2-2--2-2-2-2--2-2-2-2--5-4-0-||

Phase XI (Guitars III and IV)
E|--------------------------------------------------------------------------||
B|--------------------------------------------------------------------------||
G|---------6-9----------9-7-6--------------6-9------------------------------||
D|-------7-----7--------------9-7--------7-----7*----------------------6*---||
A|-7-7-7----------7-7-7------------7-7-7-----------7-7-7---------5-7-9----7-||
E|-5-5-5----------5-5-5------------5-5-5-----------5-5-5-0-4-5-7------------||
                                                         . . . . . . .
                                *-pinch harmonic this 7 second time through

Phase XII (Guitars III and IV)
E|-------------|-------------------|---------|--------------------------------|
B|-------------|-------------------|---------|--------------------------------|
G|-------------|-------------------|---------|--------------------------------|
D|-10-10-10-10-|-10-10-10-10-10-10-|-9-9-9-9-|-12-12-12-12--12-12-12-12-12-12-|
A|-8--8--8--8--|-8--8--8--8--8--8--|-7-7-7-7-|-10-10-10-10--10-10-10-10-10-10-|
E|-------------|-------------------|---------|--------------------------------|

--------------|-------------------------|| Pt 1 x3, Pt 2 x1, Pt 3 x2,
--------------|-------------------------|| Pt 4 x1, Pt 1 x3, Pt 5 x1,
--------------|-------------------------|| Pt 3 x2, Pt 6 x1
-10---10---10-|-12-12-12--12---12--12---||
-8----8----8--|-10-10-10--10---10--10---||
--------------|-------------------------||


Phase XIII (Guitar I)
E|-1-1-1-1-|-1-1-1-1-1-1-|-0-0-0-0-|-3-3-3-3--3-3-3-3-3-3-|-1---1---1---|-3-3-3--3--3--3---||
B|-1-1-1-1-|-1-1-1-1-1-1-|-0-0-0-0-|-3-3-3-3--3-3-3-3-3-3-|-1---1---1---|-3-3-3--3--3--3---||
G|-2-2-2-2-|-2-2-2-2-2-2-|-1-1-1-1-|-0-0-0-0--0-0-0-0-0-0-|-2---2---2---|-0-0-0--0--0--0---||
D|-3-3-3-3-|-3-3-3-3-3-3-|-2-2-2-2-|-0-0-0-0--0-0-0-0-0-0-|-3---3---3---|-0-0-0--0--0--0---||
A|-3-3-3-3-|-3-3-3-3-3-3-|-2-2-2-2-|-2-2-2-2--2-2-2-2-2-2-|-3---3---3---|-2-2-2--2--2--2---||
E|-1-1-1-1-|-1-1-1-1-1-1-|-0-0-0-0-|-3-3-3-3--3-3-3-3-3-3-|-1---1---1---|-3-3-3--3--3--3---||
 Pt 1 x3, Pt 2 x1, Pt 3 x2,
 Pt 4 x1, Pt 1 x3, Pt 5 x1,
 Pt 3 x2, Pt 6 x1

Phase XIII (Guitar IV)
E|-15b--15-13--12-13p12---------------15b--15-13--12-13p12---------------15--||
B|----------------------13----15--17-----------------------13----15--17------||
G|---------------------------------------------------------------------------||
D|---------------------------------------------------------------------------||
A|---------------------------------------------------------------------------||
E|---------------------------------------------------------------------------||

Phase XIV (Guitar III)
E|-------------------------||
B|-------------------------||
G|-------------------------||
D|-------5-...-------------||
A|-7-...-3-...-5-...-3-...-||
E|-5-...-------3-...-1-...-||

Phase XIV (Guitar IV)
E|-------------|--------------------------|--------------|-----------------------|
B|-5-----5-----|-5-----5------------------|--------------|-----------------------|
G|---5p4---5p4-|---5p4---5p4--2--0--------|--------------|-----------------------|
D|-------------|--------------------3--2--|------3-2-0-2-|------3-2-0-2--0-------|
A|-------------|--------------------------|-0------------|-0----------------3--2-|
E|-------------|--------------------------|--------------|-----------------------|

---------------------|-----------------------|
------17-15----------|-----------------------|
-/14--------17-16----|-/14--9-7--------0-----| continued...
------------------17-|----------10-9-7---3-2-|
---------------------|-----------------------|
---------------------|-----------------------|


Phase XIV (Guitar V) continued
E|-----------------------|---------------||
B|-----------------------|---------------||
G|-----------------------|---------------||
D|---2p0h2p0--3--2--0--2-|-2-0--0--------||
A|-0---------------------|--------3--3-2-||
E|-----------------------|---------------||

The order of the parts in the above two riffs go as follows:
Pt. 1 x2, Pt. 2 x1, Pt. 1 x2, Pt. 2 x1, Pt. 3 x2, Pt. 4 x1, Pt. 3 x2, Pt. 4 x1, Pt. 3 x2


Important: The song above is NOT stored on the Chordie server. The original song is hosted at www.xguitar.com. Chordie works as a search engine and provides on-the-fly formatting. Chordie does not index songs against artists'/composers' will. To remove this song please click here.

This song is displayed as text-only. Transposing and tuning is only available for chordpro-songs.

Login - add to songbook

Rating click stars to rate

Layout
Accuracy

SHARE PAGE  




You need to log in to post comments