Guitar Tabs, Chords and Lyrics


The Willing Well: IV - The Final Cut    Coheed and Cambria



THE WILLING WELL IV: THE FINAL CUT
                        As recorded by Coheed and Cambria
(From the 2005 Album GOOD APOLLO, I'M BURNING STAR IV - VOLUME ONE: FROM FEAR THROUGH THE EYES OF MADNESS)

Words and Music by Coheed and Cambria

          Eb5                  B5
      0 7 9 x x x         8 10 10 x x x

Gtr I (D# G# C# F# A# D#) - 'dist.'
Gtr II (D# G# C# F# A# D#) - 'dist.'
Gtr III (D# G# C# F# A# D#) - 'w/ talkbox'
Gtr IV (D# G# C# F# A# D#) - 'clean'

 Intro
  Moderately E.=85
  N.C.E5
 1/8 6/8
  Gtr I
  E    E  E  E  E  E  E       E  E  E  E  E  E       E  E  E  E  E  E
|---|-------------------||----------------------||--------------------|
|---|-------------------||o--------------------o||--------------------|
|---|-----------0-------||-------------0--------||------------0-------|
|---|--------9-----9----||----------9-----9-----||---------9-----9----|
|---|-----7-----------7-||o------7-----------7-o||------7-------------|
|---|--0----------------||----0-----------------||---0--------------7-|
|
| Gtr II
| E    E  E  E  E  E  E       E  E  E  E  E  E       E  E  E  E  E  E
|---|-------------------||----------------------||--------------------|
|---|-------------------||o--------------------o||--------------------|
|---|----14-12----------||------14-12-----------||-----14-12----------|
|---|-14-------16-14-12-||--/14-------16-14-12--||-/14-------16-14-12-|
|---|-------------------||o--------------------o||--------------------|
|---|-------------------||----------------------||--------------------|


    C5
     E E  E  E      S   +S  E    E E  E  E      S   +S  E
||----------------------------|----------------------------||
||o---------------------------|---------------------------o||
||--------0--4------4b5r(4)-0-|-------0--4------4b5r(4)-0--||
||-----5----------------------|----5-----------------------||
||o--3------------------------|--3------------------------o||
||----------------------------|----------------------------||
|
|    E E  E  E     +E       E    E E  E  E     +E       E
||----------------------------|----------------------------||
||o---------10b12r(10)--------|---------10b12r(10)--------o||
||-----9-12-----------------9-|----9-12-----------------9--||
||--10------------------------|-10-------------------------||
||o---------------------------|---------------------------o||
||----------------------------|----------------------------||


    E5
     E     E     E  E  E  E    E     E     E  E  E  E
||--------------------------|--------------------------||
||o-------------------------|-------------------------o||
||------------------0-------|-----------------0--------||
||---------------9-----9----|--------------9-----9-----||
||o--------7--------------7-|--------7--------------7-o||
||---0----------------------|--0-----------------------||
|
|    S  S  S  S  E  E  E  E    S  S  S  S  E  E  E  E
||--10----------------------|-10-----------------------||
||o----12-------------------|----12-------------------o||
||--------14-14-12----------|-------14-14-12-----------||
||-----------------14-12-14-|----------------14-12-14--||
||o-------------------------|-------------------------o||
||--------------------------|--------------------------||


  C5
   E E  E  E      S   +S  E
|---------------------------|
|---------------------------|
|-------0--4------4b5r(4)---|
|----5--------------------5-|
|--3------------------------|
|---------------------------|
|
|  E E  E  E     +E       E
|---------------------------|
|---------10b12r(10)--------|
|----9-12-----------------9-|
|-10------------------------|
|---------------------------|
|---------------------------|


   E E  E  E      S   +S  E    E E  E  E      S   +S  E
|---------------------------|---------------------------|
|---------------------------|---------------------------|
|-------0--4------4b5r(4)---|-------0--4------4b5r(4)---|
|----5--------------------5-|----5--------------------5-|
|--3------------------------|--3------------------------|
|---------------------------|---------------------------|
|
|  E E  E  E     +E       E    E E  E  E     +E       E
|---------------------------|---------------------------|
|---------10b12r(10)--------|---------10b12r(10)--------|
|----9-12-----------------9-|----9-12-----------------9-|
|-10------------------------|-10------------------------|
|---------------------------|---------------------------|
|---------------------------|---------------------------|


   E     E  E            E         E  E
|-----------------------------------------------||
|--------------------------------/12------------||
|-----------0------------4----------------------||
|--------5----------------------------5---------||
|--3--------------------------------------------||
|-----------------------------------------------||
|
|  E    +Q      a       +S   +S    E  T  T  T T
|-------------[10]b12==(10)r(10)---7------------||
|------------------------------------10h12p10p8-||
|-[7]b9-(7)-------------------------------------||
|-----------------------------------------------||
|-----------------------------------------------||
|-----------------------------------------------||


 Verse
  E5
  PM-------------------------|
  E  E E E E E    E  E E E E E
|--------------|---------------|
|--------------|---------------|
|--------x-----|---------x-----|
|------x---x---|-------x---x---|
|----x-------x-|-----x-------x-|
|-x------------|--x------------|
|
| H.             +H.
|--------------|---------------|
|--------------|---------------|
|-9------------|-(9)-----------|
|--------------|---------------|
|--------------|---------------|
|--------------|---------------|


                                C5
  PM----------------------------------------|
  E  E E E E E   E  E E E E E    E  E E E E E
|--------------|--------------|---------------|
|--------------|--------------|---------------|
|--------x-----|--------x-----|-------x-x-x-x-|
|------x---x---|------x-------|-----x---------|
|----x-------x-|----x-------x-|--x------------|
|-x------------|-x--------x---|---------------|
|
| E  E H         H.              H.
|--------------|--------------|---------------|
|--------------|--------------|---------------|
|-9\-----------|--------------|---------------|
|-x\-----------|--------------|-10------------|
|-x\-----------|--------------|-10------------|
|--------------|--------------|--8------------|


    PM---------------------------------------------|
    E  E E E E E    E  E E  E  E E    E  E E  E  E E
|----------------|-----------------|-----------------|
|----------------|-----------------|-----------------|
|--------x-x-x-x-|-------x--x--x-x-|-------x--x--x-x-|
|------x---------|-----x-----------|-----x-----------|
|---x------------|--x--------------|--x--------------|
|----------------|-----------------|-----------------|
|
|  +H.              Q.      Q.       +Q.      Q.
|----------------|-----------------|-----------------|
|----------------|-----------------|-----------------|
|----------------|-----------------|----------9------|
|-(10)-----------|-----------------|---------10------|
|-(10)-----------|---------10------|---------10------|
|--(8)-----------|-(8)------8------|-(8)------8------|


  E5
  PM---------------------------------------------------|
  E  E E  E  E E     E  E E  E  E E     E  E E E     E   E
|----------------|------------------|-----------------------|
|----------------|------------------|-----------------------|
|---------x------|-----------x------|----------x------------|
|------x-----x---|--------x-----x---|--------x-------x------|
|----x---------x-|------x---------x-|------x-------------x--|
|-x--------------|---x--------------|---x-------------------|
|
| Q.      Q.        +Q.      Q.        +Q.     S  E.    +E
|----------------|------------------|-----------------------|
|--------12------|-(12)-------------|----------8------------|
|----------------|----------11------|-(11)-------11----(11)-|
|----------------|------------------|-----------------------|
|-7--------------|------------------|-----------------------|
|-0--------------|------------------|-----------------------|


                       C5
    PM-----------------------------------------------|
    E  E E  E   E  E   E  E E  E  E E   E  E E  E  E E
|--------------------|----------------|----------------|
|--------------------|----------------|----------------|
|-----------x--------|------x--x--x-x-|------x--x--x-x-|
|--------x-----------|----x-----------|----x-----------|
|------x-----------x-|-x--------------|-x--------------|
|---x-----------x----|----------------|----------------|
|
|  +Q.      E  +Q      Q.      Q.       Q.      Q.
|--------------------|----------------|----------------|
|-----------8--------|----------------|----------------|
|-(11)-----11-(11)---|----------------|---------9------|
|--------------------|----------------|--------10------|
|--------------------|--------10------|--------10------|
|--------------------|-8-------8------|-8-------8------|


                                          E5
   PM-------------------------------------------------|
   E  E E E E E   E      E    E E E  E    E  E E E  E E
|---------------|-----------------------|---------------|
|---------------|-----------------------|---------------|
|-------x-x-x-x-|-------------x-x-5--0--|--------x------|
|-----x---------|--------x--------------|------x----x---|
|--x------------|-x---------------------|----x--------x-|
|---------------|-----------------------|-x-------------|
|
|  H.             S    S S  S E E E  E    Q.     Q.
|---------------|-----------------------|---------------|
|---------------|-----10-8--------------|---------------|
|---------------|-7b9------11-9-7-9-----|--------9------|
|---------------|--------------------9--|--------9------|
|-10------------|-------------------(7)-|--------7------|
|--8------------|-----------------------|--------0------|


   PM-------------------------------------------------------------|
   E  E E E     E   E      E  E E E     E   E      E  E E  E   E  E
|----------------------|-----------------------|--------------------|
|----------------------|-----------------------|--------------------|
|---------x------------|----------x------------|-----------x--------|
|-------x-------x------|--------x-------x------|--------x-----------|
|-----x-------------x--|------x-------------x--|------x-----------x-|
|--x-------------------|---x-------------------|---x-----------x----|
|
| +Q.     S  E.    +E     +Q.     S  E.    +E     +Q.      E  +Q
|----------------------|-----------------------|--------------------|
|---------8------------|----------8------------|-----------8--------|
|-(9)-------11----(11)-|-(11)-------11----(11)-|-(11)-----11-(11)---|
|-(9)------------------|-----------------------|--------------------|
|-(7)------------------|-----------------------|--------------------|
|-(0)------------------|-----------------------|--------------------|


  C5
    PM-----------------------|
    E  E E  E  E E     E   E   E  E S   +S  E
|------------------|--------------------------|
|------------------|--------------------------|
|--------x--4--5-0-|-----------x--4-4b5r(4)-0-|
|------x-----------|-------x------------------|
|---x--------------|---x----------------------|
|------------------|--------------------------|
|
|  +Q.      Q.        +E   E  +H
|------------------|--------------------------|
|------------------|--------------------------|
|-(11)------9------|--(9)--9--(9)-------------|
|----------10------|-(10)-10-(10)-------------|
|----------10------|-(10)-10-(10)-------------|
|-----------8------|--(8)--8--(8)-------------|


    PM---|
    E  E E E S   +S  E     E  E  E  E  S   +S   E
|----------------------|--------------------------||
|----------------------|--------------------------||
|--------0-4-4b5r(4)-0-|---------0--4--4b5r(4)----||
|------5---------------|------5-----------------5-||
|---3------------------|---3----------------------||
|----------------------|--------------------------||
|
|  +H.                    +Q     E  E  E        E
|----------------------|--------------------------||
|----------------------|--------------------------||
|--(9)-----------------|--(9)----9--9--9--------9-||
|-(10)-----------------|-(10)---10-10-10-------10-||
|-(10)-----------------|-(10)---10-10-10-------10-||
|--(8)-----------------|--(8)----8--8--8--------8-||


   Chorus
    Slower E.=80
    E5
    E E E E E E   E E E E E E
||--------------|--------------||
||o-------------|-------------o||
||--------0-----|-------0------||
||------9---9---|-----9---9----||
||o---7-------7-|---7-------7-o||
||--0-----------|-0------------||
|
|   E E E E E E   E E E E E E
||--------------|--------------||
||o-------------|-------------o||
||--------------|--------------||
||--9-9-9-9-9-9-|-9-9-9-9-9-9--||
||o-7-7-7-7-7-7-|-7-7-7-7-7-7-o||
||--0-0-0-0-0-0-|-0-0-0-0-0-0--||


    C5
     E  E  E  E  S   +S   E    E  E  E  E  S   +S   E
||--------------------------|--------------------------||
||o-------------------------|-------------------------o||
||---------0--4--4b5r(4)--0-|--------0--4--4b5r(4)--0--||
||------5-------------------|-----5--------------------||
||o--3----------------------|--3----------------------o||
||--------------------------|--------------------------||
|
|    E  E  E  E  E        E    E  E  E  E  E        E
||--------------------------|--------------------------||
||o-------------------------|-------------------------o||
||--------------------------|--------------------------||
||--------------------------|--------------------------||
||o-10-10-10-10-10-------10-|-10-10-10-10-10-------10-o||
||---8--8--8--8--8--------8-|--8--8--8--8--8--------8--||


    E5
    E E E E E E   E E E E E E
||--------------|--------------||
||o-------------|-------------o||
||--------0-----|-------0------||
||------9---9---|-----9---9----||
||o---7-------7-|---7-------7-o||
||--0-----------|-0------------||
|
|   E E E E E E   E E E E E E
||--------------|--------------||
||o-------------|-------------o||
||--------------|--------------||
||--9-9-9-9-9-9-|-9-9-9-9-9-9--||
||o-7-7-7-7-7-7-|-7-7-7-7-7-7-o||
||--0-0-0-0-0-0-|-0-0-0-0-0-0--||


    C5
     E  E  E  E  S   +S   E    E  E  E  E  S   +S   E
||--------------------------|--------------------------||
||o-------------------------|-------------------------o||
||---------0--4--4b5r(4)--0-|--------0--4--4b5r(4)--0--||
||------5-------------------|-----5--------------------||
||o--3----------------------|--3----------------------o||
||--------------------------|--------------------------||
|
|    E  E  E  E  E        E    E  E  E  E  E        E
||--------------------------|--------------------------||
||o-------------------------|-------------------------o||
||--------------------------|--------------------------||
||--------------------------|--------------------------||
||o-10-10-10-10-10-------10-|-10-10-10-10-10-------10-o||
||---8--8--8--8--8--------8-|--8--8--8--8--8--------8--||


 Guitar Solo
  A Tempo E.=85
  E5
  Gtr I
   E     E         E       E E E       E  E E E  E E
|------------------------------------|---------------|
|------------------------------------|---------------|
|--------------------------0---------|--------0------|
|------------------9---------9-------|------9----9---|
|--------7---------------------7-----|----7--------7-|
|--0---------------------------------|-0-------------|
|
| Gtr III
|        |---3---| |--3--|     |-3-|
|  E     S  +S   S S +S  S Q   S S S   Q.     E  Q
|-------10-(10)----------------------|---------------|
|-10b12---------10p8-(8)-8-----------|---------------|
|--------------------------9---9p7---|-7------9\-----|
|----------------------------------9-|---------------|
|------------------------------------|---------------|
|------------------------------------|---------------|


   E     E         E       E E E       E E E       E E E
|------------------------------------|-------------------|
|------------------------------------|-------------------|
|--------------------------0---------|-------------0-----|
|------------------9---------9-------|-----9---------9---|
|--------7---------------------7-----|---7---------------|
|--0---------------------------------|-0---------------7-|
|
|        |---3---| |--3--|     |-3-|       |--3--|
|  E     S  +S   S S +S  S Q   S S S   Q   S +S  S E E E
|-------10-(10)----------------------|-------------------|
|-10b12---------10p8-(8)-8-----------|-------------------|
|--------------------------9---9p7---|-7---9-(9)-7-9-9-9-|
|----------------------------------9-|-------------------|
|------------------------------------|-------------------|
|------------------------------------|-------------------|


  C5
   E       E   E          E          S   +S   E
|---------------------------------------------------|
|---------------------------------------------------|
|-------------------------4----------4b5r(4)--0-----|
|----------5---5------------------------------------|
|--3------------------------------------------------|
|---------------------------------------------------|
|
|              |---3---|  |---3---|
|  E      +E   S  +S   S  S  +S   S  E        S  S
|-22b24==(22)-22-(22)r22-20-(20)-19-20-------19p(0)-|
|---------------------------------------------------|
|---------------------------------------------------|
|---------------------------------------------------|
|---------------------------------------------------|
|---------------------------------------------------|


   E       E   E          E          S   +S    E
|--------------------------------------------------|
|--------------------------------------------------|
|-------------------------4----------4b5r(4)---0---|
|----------5---5-----------------------------------|
|--3-----------------------------------------------|
|--------------------------------------------------|
|
|              |---3---|  |---3---|
|  E      +E   S  +S   S  S  +S   S  E        +E
|-22b24==(22)-22-(22)r20-19-(19)-20----------------|
|-----------------------------------20-------(20)\-|
|--------------------------------------------------|
|--------------------------------------------------|
|--------------------------------------------------|
|--------------------------------------------------|


   E      E      E E  S   +S  E   E       E E E      S     +S   E
|-------------------------------|-------------------------------------|
|-------------------------------|-------------------------------------|
|------------------4--4b5r(4)-0-|-------------4------4b5r==(4)--0-----|
|---------5------5--------------|---------5-5-------------------------|
|--3----------------------------|-3-----------------------------------|
|-------------------------------|-------------------------------------|
|
|  |-3--| |-3-|                   |--3--|
|  S S  S S S S  E E  E       E   S +S  S E E T T  S T   T  T T T T S
|-------------------------------|-------------5h7h10-5h==7h10p8p7p5---|
|-------------------------------|---------5-5-----------------------8-|
|-------------------------------|-------7-----------------------------|
|---------7-9-7-----------------|-9-(9)-------------------------------|
|----9-10-------10-9----------9-|-------------------------------------|
|-10-----------------10---------|-------------------------------------|


  E5
  E     E E E  E   E    E  E E E E E
|---------------------|--------------|
|---------------------|--------------|
|-----------0---------|--------0-----|
|---------9----9------|------9---9---|
|-------7----------7--|----7-------7-|
|-0-------------------|-0------------|
|
| H           +E  +E    Q.     Q   E
|---------------------|--------------|
|-7-----------(7)-(7)-|--------------|
|-9b11========(9)r(9)-|--------------|
|---------------------|-9------9-----|
|---------------------|--------------|
|---------------------|--------------|


  E     E E  E  E       E   E  E E  E          E          E
|-------------------------|---------------------------------|
|-------------------------|---------------------------------|
|------------0------------|---------0-----------------------|
|---------9-----9---------|------9-------------9------------|
|-------7---------------7-|----7----------------------------|
|-0-----------------------|-0-----------------------------7-|
|
|               |--3--|             |---3---|  |---3---|
| Q.        +E  S +S  S E   Q.      S  +S   S  S  +S   S  E
|-------------------------|--------10-(10)------------------|
|-7---------(7)-----------|----------------12-10-(10)-------|
|-9b11======(9)r9-(9)-7-9-|-9-------------------------12-11-|
|-------------------------|---------------------------------|
|-------------------------|---------------------------------|
|-------------------------|---------------------------------|


  C5
   E E  E    E S   +S  E    E  E E E     S   +S  E
|-------------------------|------------------------|
|-------------------------|------------------------|
|------------4-4b5r(4)-0--|--------4-----4b5r(4)-0-|
|----5--5-----------------|----5-5-----------------|
|--3----------------------|-3----------------------|
|-------------------------|------------------------|
|
|                                  |-3-|
|  Q    S  S Q         E    Q.     S S S E       E
|-------------------------|--------5-7-5-7-------8-|
|-------------------------|------------------------|
|-12---12p11-9---------9\-|-9----------------------|
|-------------------------|------------------------|
|-------------------------|------------------------|
|-------------------------|------------------------|


  Q.     Q.            E       E  E   E         Q
|-------------------|----------------------------------||
|-------------------|----------------------------------||
|-------------------|---------------/12----------------||
|-------------------|----------5--5--------------------||
|-3-----------------|--3-------------------------------||
|------/12\---------|----------------------------------||
|
|                                     |---3---|
| Q.     E     +Q      E       Q      S  +S   S S   E.
|-7-----------------|--7------(7)----12-(12)-15---/17--||
|-------10b12r(10)--|-10b12.5r10-----------------------||
|-------------------|----------------------------------||
|-------------------|----------------------------------||
|-------------------|----------------------------------||
|-------------------|----------------------------------||


 Guitar Solo
  E5
  Gtr IV
   |--3---|               |-3--| |-3--|  |-3--| |--3--|  |-3-|
   S   S  S  Q   E  Q     S  S S S S  S  S  S S e  e  E  S S S
|--------12-10--12\----|---------------------------------------|
|-10--12--------12\----|-----------8h10-12p10p8-8-10-12s10-8---|
|----------------------|-------7-9---------------------------7-|
|----------------------|---------------------------------------|
|----------------------|---------------------------------------|
|----------------------|---------------------------------------|
|
| Gtr III
|  ~~~~~~~~~~~~~~~~~~~~~~~~~~
|  H.                    +H.
|----------------------|---------------------------------------|
|----------------------|---------------------------------------|
|----------------------|---------------------------------------|
|--9-------------------|-(9)-----------------------------------|
|--7-------------------|-(7)-----------------------------------|
|--0-------------------|-(0)-----------------------------------|


  |--3--|               |-3--| |-3-| |-3-| |-3--|  |-3--|
  S   S S +Q   E  Q     S  S S S S S S S S S S  S  e E +E
|--------------------|-------------------------------------|
|-8--10-8-(8)--------|-------------------------------------|
|--------------9\----|-------7-9-7---7---------------------|
|--------------------|-------------9---9-7-9-7-------7-(7)-|
|--------------------|-------------------------10-10-------|
|--------------------|-------------------------------------|
|
| ~~~~~~~~~~~~~~~~~~~~~~~~~
| H.                   +H.
|--------------------|-------------------------------------|
|--------------------|-------------------------------------|
|--------------------|-------------------------------------|
|-9------------------|-(9)---------------------------------|
|-7------------------|-(7)---------------------------------|
|-0------------------|-(0)---------------------------------|


  C5
   |----3----|               |--3--| |-3-| |-3-| |-3-|  |--3---|  |--3--|
   S    +S   S Q   E  Q      S  S  S S S S S S S S S S  s  +S  s +S   S S
|------------------------|-----------------7------------------------------|
|------------------------|---------------8---8----------------------------|
|------------------------|-----------7-9-------9-9-7-----------7-(7)------|
|--7b9==(7)r-7-----------|---------------------------9-10-(10)-------10-9-|
|--------------7--10\----|--------10--------------------------------------|
|------------------------|------------------------------------------------|
|
|  ~~~~~~~~~~~~~~~~~~~~~~~~~~~~~
|  H.                       +H.
|------------------------|------------------------------------------------|
|------------------------|------------------------------------------------|
|------------------------|------------------------------------------------|
|-10---------------------|-(10)-------------------------------------------|
|-10---------------------|-(10)-------------------------------------------|
|--8---------------------|--(8)-------------------------------------------|


          |-3--|
   Q.   E E  E E     Q.    Q  E
|----------------|--------10----|
|----------------|--------------|
|----------------|--------------|
|--------------7-|--------------|
|-10----x---10---|---9----------|
|----------------|--------------|
|
|  ~~~~~~~~~~~~~~~~~~~~~
|  H.               +H.
|----------------|--------------|
|----------------|--------------|
|----------------|--------------|
|-10-------------|-(10)---------|
|-10-------------|-(10)---------|
|--8-------------|--(8)---------|


  E5
                     |--3--|
   Q       +E   +Q   S  S  S    H.
|-12b14===(12)r(12)----10-12-|--------|
|----------------------------|-12-----|
|----------------------------|--------|
|----------------------------|--------|
|----------------------------|--------|
|----------------------------|--------|
|
|  ~~~~~~~~~~~~~~~~~~~~~~~~~~~~~~~~
|  H.                          +H.
|----------------------------|--------|
|----------------------------|--------|
|----------------------------|--------|
|--9-------------------------|-(9)----|
|--7-------------------------|-(7)----|
|--0-------------------------|-(0)----|


                     |---3----|           |--3--|
   Q.      Q.        S   +S   S  Q   Q    S  S  S
|-17b19---17b19---|-15--(15)-17-----15\--10h12h15-|
|-----------------|-------------17----------------|
|-----------------|-------------------------------|
|-----------------|-------------------------------|
|-----------------|-------------------------------|
|-----------------|-------------------------------|
|
|  ~~~~~~~~~~~~~~~~~~~~~
|  H.               +H.
|-----------------|-------------------------------|
|-----------------|-------------------------------|
|-----------------|-------------------------------|
|--9--------------|-(9)---------------------------|
|--7--------------|-(7)---------------------------|
|--0--------------|-(0)---------------------------|


  C5
   |--3---|  |--3--|            |--3--|
   e   e  e  S  S  S  +E   +E   S  S  S
|-----12-15-12--------------------------|
|-15-----------15-12-(12)-(12)\---12-13-|
|---------------------------------------|
|---------------------------------------|
|---------------------------------------|
|---------------------------------------|
|
|  ~~~~~~~~~~~~~~~~~~~~~~~~~~~~~~~~~~~~~~
|  H.
|---------------------------------------|
|---------------------------------------|
|---------------------------------------|
|-10------------------------------------|
|-10------------------------------------|
|--8------------------------------------|


    |-----3------|      |--3---|  |---3---|
    E      +E    E     +S   S  S  S  +S   S  E E
|------------------------------------------------|
|--13b15==(13)r-13b15r(13)-12----12-(12)-13------|
|-----------------------------14------------14---|
|------------------------------------------------|
|------------------------------------------------|
|------------------------------------------------|
|
|~~~~~~~~~
|  +H.
|------------------------------------------------|
|------------------------------------------------|
|------------------------------------------------|
|-(10)-------------------------------------------|
|-(10)-------------------------------------------|
|--(8)-------------------------------------------|


   |-3--| |-3--|          |----3-----|     |-----3-----| |-3-|  |-3--|
   S  S S S S  S T  T T T e  e S S e s    +S  e e  e e e S S E +S  S S
|----------------7---------------------|-------------------------------|
|-----------8-10---10p8---8-10-8-------|-------------------------------|
|-------7-9-------------7--------9-9-7-|--(7)------------------------7-|
|--------------------------------------|------9-7----------------------|
|--------------------------------------|----------10-9-7-7-5-7-(7)-----|
|--------------------------------------|-------------------------------|
|
|  ~~~~~~~~~~~~~~~~~~~~~~~~~~~~~~~~~~~~~~~~~~~
|  H.                                     +H.
|--------------------------------------|-------------------------------|
|--------------------------------------|-------------------------------|
|--------------------------------------|-------------------------------|
|-10-----------------------------------|-(10)--------------------------|
|-10-----------------------------------|-(10)--------------------------|
|--8-----------------------------------|--(8)--------------------------|


  E5
  |-3--| |-3-|      |-3-| |-3-|    |-3--|  |--3--| |-3-|     |-3-|
  S  S S S S S E E  S S S S S S    S  S S  S  S  S S S S Q   S S S
|-------------------------------|----------------------------------|
|--------------8----7-7-7-------|----------------------------------|
|-9--9-9-9-7-9-9-9\-------7-7-7-|--9--9-9------------------------7-|
|-------------------------------|---------10-10-10-9-9-9-7\--------|
|-------------------------------|----------------------------------|
|-------------------------------|----------------------------------|
|
| ~~~~~~~~~~~~~~~~~~~~~~~~~~~~~~~~~~~~
| H.                              +H.
|-------------------------------|----------------------------------|
|-------------------------------|----------------------------------|
|-------------------------------|----------------------------------|
|-9-----------------------------|-(9)------------------------------|
|-7-----------------------------|-(7)------------------------------|
|-0-----------------------------|-(0)------------------------------|


  |-3--| |-3-|      |-3-| |-3-|    |-3--|  |--3--| |-3-|
  S  S S S S S E E  S S S S S S    S  S S  S  S  S S S S Q   E
|-------------------------------|------------------------------|
|--------------8----7-7-7-------|------------------------------|
|-9--9-9-9-7-9-9-9\-------7-7-7-|--9--9-9----------------------|
|-------------------------------|---------10-10-10-9-9-9-7\----|
|-------------------------------|------------------------------|
|-------------------------------|------------------------------|
|
| ~~~~~~~~~~~~~~~~~~~~~~~~~~~~~~~~~~~~
| H.                              +H.
|-------------------------------|------------------------------|
|-------------------------------|------------------------------|
|-------------------------------|------------------------------|
|-9-----------------------------|-(9)--------------------------|
|-7-----------------------------|-(7)--------------------------|
|-0-----------------------------|-(0)--------------------------|


  C5
                       |---3---|  |--3--|        |--3--|
   S      +S   +S   S  S  +S   S  S  S  S  +E   +S  S  S
|-10b12==(10)r(10)------------------------------------10b12==|
|------------------13-12-(12)-13-12-13-12-(12)-(12)-x--------|
|------------------------------------------------------------|
|------------------------------------------------------------|
|------------------------------------------------------------|
|------------------------------------------------------------|
|
|  ~~~~~~~~~~~~~~~~~~~~~~~~~~~~~~~~~~~~~~~~~~~~~~~~~~~~~~~~~~~
|  H.
|------------------------------------------------------------|
|------------------------------------------------------------|
|------------------------------------------------------------|
|-10---------------------------------------------------------|
|-10---------------------------------------------------------|
|--8---------------------------------------------------------|


    |----3----|  |--3--|   |---3----|
   +S   +S    S  S  S  S  +S   +S   S  Q.
|-(10)-(10)r-15-12p10-----------------------|
|---------------------10-(10)-(10)-12-------|
|-------------------------------------12----|
|-------------------------------------------|
|-------------------------------------------|
|-------------------------------------------|
|
|~~~~~~
|  +H.
|-------------------------------------------|
|-------------------------------------------|
|-------------------------------------------|
|-(10)--------------------------------------|
|-(10)--------------------------------------|
|--(8)--------------------------------------|


            |---3---|           |---3---|
   Q       +S    S  S  Q       +S    S  S
|-10b12===(10)r-10-12-12b14===(12)r-15-17-|
|-----------------------------------------|
|-----------------------------------------|
|-----------------------------------------|
|-----------------------------------------|
|-----------------------------------------|
|
|  ~~~~~~~~~~~~~~~~~~~~~~~~~~~~~~~~~~~~~~~~
|  H.
|-----------------------------------------|
|-----------------------------------------|
|-----------------------------------------|
|-10--------------------------------------|
|-10--------------------------------------|
|--8--------------------------------------|


             |---3---|   |---3---|   |---3---|
    Q       +S   S  +S   S  +S   S  +S   S  +S   S  S
|--17b19===(17)-17r(17)-17r(17)-17r(17)-17r(17)-17s15-|
|-----------------------------------------------------|
|-----------------------------------------------------|
|-----------------------------------------------------|
|-----------------------------------------------------|
|-----------------------------------------------------|
|
|~~~~~~~~~
|  +H.
|-----------------------------------------------------|
|-----------------------------------------------------|
|-----------------------------------------------------|
|-(10)------------------------------------------------|
|-(10)------------------------------------------------|
|--(8)------------------------------------------------|


  Faster E.=87
  E5
   |--3--|
   S  S  S  E  E  E  E  E    Q    E  E  E  E
|----10-12----------10----|------------------|
|-12-------12-12-10----10-|------------12----|
|-------------------------|-12---12-11----11-|
|-------------------------|------------------|
|-------------------------|------------------|
|-------------------------|------------------|
|
| Gtr I
|  E        E  E  E  E  E    E E  E  E  E  E
|-------------------------|------------------|
|-------------------------|------------------|
|-----------------0-------|----------0-------|
|--------------9-----9----|-------9-----9----|
|-----------7-----------7-|----7-----------7-|
|--0----------------------|--0---------------|


   E  E  E  E  E  E    E  E  E  E  E  E
|----12-------10----|-------------------|
|-12----12-10----10-|----12-------12----|
|-------------------|-12----12-11----11-|
|-------------------|-------------------|
|-------------------|-------------------|
|-------------------|-------------------|
|
|  E  E  E  E  E  E    E  E  E  E  E  E
|-------------------|-------------------|
|-------------------|-------------------|
|-----------0-------|-----------0-------|
|--------9-----9----|--------9-----9----|
|-----7-----------7-|-----7-------------|
|--0----------------|--0--------------7-|


  C5
                     |--3---|                        |---3----|
  H       +E         S  +S  S    H        +E        +S   +S   S
|-----------------------------|---------------------------------|
|-----------------------------|---------------------------------|
|-9-------(9)------/11-(11)-9-|---------------------------------|
|-----------------------------|-12-------(12)------(12)-(12)-12-|
|-----------------------------|---------------------------------|
|-----------------------------|---------------------------------|
|
| E E E E  S   +S    E           E E E E   S   +S    E
|-----------------------------|---------------------------------|
|-----------------------------|---------------------------------|
|-----0-4--4b5r(4)---0--------|------0-4---4b5r(4)---0----------|
|---5-------------------------|----5----------------------------|
|-3---------------------------|--3------------------------------|
|-----------------------------|---------------------------------|


            |--3--|  |-----3-----|
   Q.      +S  S +S  E       E   E   +H.
|----------------------------------|---------------||
|----------------------------------|---------------||
|----------------------------------|---------------||
|-10------(10)-9-(9)-9-------9---9-|-(9)-----------||
|----------------------------------|---------------||
|----------------------------------|---------------||
|
|  E  E E   E        S   +S    E      E  E E  Q.
|----------------------------------|---------------||
|----------------------------------|---------------||
|-------0---4--------4b5r(4)---0---|---------------||
|-----5----------------------------|-----5-5-12\---||
|--3-------------------------------|--3------------||
|----------------------------------|---------------||


 Outro
  E5
  Gtr I
  E  E E Q.      E  E E E     E   E      E  E E E     E   E
|-------------|----------------------|-----------------------|
|-------------|----------------------|-----------------------|
|-------------|---------0------------|----------0------------|
|----9-9------|-------9-------9------|--------9-------9------|
|--------7----|-----7-------------7--|------7-------------7--|
|-0-----------|--0-------------------|---0-------------------|
|
| Gtr II
| Q.     Q.     +Q.     S  E.    +E     +Q.     S  E.    +E
|-------------|----------------------|-----------------------|
|-------------|---------8------------|----------8------------|
|-------------|-----------11----(11)-|-(11)-------11----(11)-|
|--------9----|-(9)------------------|-----------------------|
|--------7----|-(7)------------------|-----------------------|
|--------0----|-(0)------------------|-----------------------|


                          C5
    E  E E E     E   E      E  E E  E  S   +S  E     E  E E  E  S   +S  E
|-----------------------|------------------------|------------------------|
|-----------------------|------------------------|------------------------|
|----------0------------|--------0--4--4b5r(4)-0-|--------0--4--4b5r(4)-0-|
|--------9-------9------|------5-----------------|------5-----------------|
|------7----------------|---3--------------------|---3--------------------|
|---0----------------7--|------------------------|------------------------|
|
|  +Q.     S  E.    +E     +Q.      Q.              +Q.      Q.
|-----------------------|------------------------|------------------------|
|----------8------------|------------------------|------------------------|
|-(11)-------11----(11)-|-(11)-------------------|------------------------|
|-----------------------|----------10------------|-(10)-----10------------|
|-----------------------|----------10------------|-(10)-----10------------|
|-----------------------|-----------8------------|--(8)------8------------|


                                ~~~~~~~~~~~~~~~
    E  E E  E +S     +S   E    +Q.        +Q.
|---------------------------|--------------------|
|---------------------------|--------------------|
|--------0--4-(4)b5==(4)s22-|-(22)-------(22)r---|
|------5--------------------|--------------------|
|---3-----------------------|--------------------|
|---------------------------|--------------------|
|
|  +Q.      Q             E     E   E  E   Q.
|---------------------------|--------------------|
|---------------------------|--------------------|
|---------------------------|--------------------|
|-(10)-----10---------------|-------------10-----|
|-(10)-----10------------10-|--10--10-10--10-----|
|--(8)------8-------------8-|---8---8--8---8-----|


  A Tempo E.=85
  E5
  H.          +H.            +H.
|-----------|--------------|---------------|
|-----------|--------------|---------------|
|-----------|--------------|---------------|
|-----------|--------------|---------------|
|-2---------|-(2)----------|-(2)-----------|
|-0---------|-(0)----------|-(0)-----------|
|
| Q.   Q.     +E. S E Q.     +Q   S S Q.
|-----------|--------------|---------------|
|-----------|--------------|---------------|
|-----------|--------------|---------------|
|------9----|-(9)-----9----|-(9)------9----|
|------7----|-(7)-7-7-7----|-(7)--7-7-7----|
|------0----|-(0)-0-0-0----|-(0)--0-0-0----|


           |--3---|
   H       E  E  +E     +H.         +Q.   Q.     Wx12
|---------17-15-(15)-|-(15)------|-(15)--------|---------*|
|--------------------|-----------|-------------|---------*|
|--------------------|-----------|-------------|---------*|
|--------------------|-----------|-------------|---------*|
|--2-----------------|-----------|-------------|---------*|
|--0-----------------|-----------|-------------|---------*|
|
| +Q.   E  Q            +H.         +H.          Wx12
|--------------------|-----------|-------------|---------*|
|--------------------|-----------|-------------|---------*|
|----------9---------|--(9)------|--(9)--------|---------*|
|-(9)---9--9---------|--(9)------|--(9)--------|---------*|
|-(7)---7------------|-----------|-------------|---------*|
|-(0)---0------------|-----------|-------------|---------*|


Duration Legend
---------------
W - whole; H - half; Q - quarter; E - 8th; S - 16th; T - 32nd; X - 64th; a - acciaccatura
+ - note tied to previous; . - note dotted; .. - note double dotted
Uncapitalized letters represent notes that are staccato (1/2 duration)
Irregular groupings are notated above the duration line
Duration letters will always appear directly above the note/fret number it represents the
duration for.  Duration letters with no fret number below them represent rests.  Multi-
bar rests are notated in the form Wxn, where n is the number of bars to rest for.  Low
melody durations appear below the staff

Tablature Legend
----------------
 h   - hammer-on
 p   - pull-off
 b   - bend
 pb  - pre-bend
 r   - bend release (if no number after the r, then release immediately)
 /\  - slide into or out of (from/to "nowhere")
 s   - legato slide
 S   - shift slide
  - natural harmonic
[n]  - artificial harmonic
n(n) - tapped harmonic
 ~   - vibrato
 tr  - trill
 T   - tap
 TP  - trem. picking
 PM  - palm muting
\n/  - tremolo bar dip; n = amount to dip
 \n  - tremolo bar down
 n/  - tremolo bar up
/n\  - tremolo bar inverted dip
 =   - hold bend; also acts as connecting device for hammers/pulls
   - volume swell (louder/softer)
 x   - on rhythm slash represents muted slash
 o   - on rhythm slash represents single note slash

Misc Legend
-----------
 |  - bar
||  - double bar
||o - repeat start
o|| - repeat end
*|  - double bar (ending)
 :  - bar (freetime)
 $  - Segno
 &  - Coda
Tempo markers -  = BPM(8/16=s8/s16), where s8 = swing 8ths, s16 = swing 16ths


***************************************************************************************
* Generated using Power Tab Editor by Brad Larsen - http://powertab.guitarnetwork.org *


Important: The song above is NOT stored on the Chordie server. The original song is hosted at www.xguitar.com. Chordie works as a search engine and provides on-the-fly formatting. Chordie does not index songs against artists'/composers' will. To remove this song please click here.

This song is displayed as text-only. Transposing and tuning is only available for chordpro-songs.

Login - add to songbook

Rating click stars to rate

Layout
Accuracy

SHARE PAGE  




You need to log in to post comments