Chordie logo

A Favor House Atlantic      Coheed and Cambria



Coheed And Cambria - A Favor House Atlantic
Submitted By: Sqweeky
EMail: Blindside831@aol.com


------
RHYTHM
------

e|---------------------------|
B|---------------------------|
G|-6-6-6-6-6-6-6---4-6-------|
D|-6-6-6-6-6-6-6-7-----4-----|
A|-4-4-4-4-4-4-4-7-------7-6-|
E|---------------5-----------|

e|-----------------------------------------------------------------|
B|-----------------------------------------------------------------|
G|-2-2-2-2-2-2-2-2-2-2-2-2-2-2-2-2-4-4-4-4-4-4-4-4-6-6-6-6-6-6-6-6-|
D|-2-2-2-2-2-2-2-2-2-2-2-2-2-2-2-2-4-4-4-4-4-4-4-4-6-6-6-6-6-6-6-6-|
A|-0-0-0-0-0-0-0-0-0-0-0-0-0-0-0-0-2-2-2-2-2-2-2-2-4-4-4-4-4-4-4-4-|
E|-----------------------------------------------------------------|

e|---| palm mute
B|---| repeat lots
G|-2-|
D|-2-|
A|-0-|
E|---|

e|-----------------------------|
B|-----------------------------|
G|--------2-2----6-6----4-4----|
D|-2-2----2-2----6-6----4-4----|
A|-2-2----0-0----4-4----2-2----|
E|-0-0-------------------------|

e|---|
B|---| it's vancier than that, but I haven't figured out that part yet
G|-2-|
D|-2-|
A|-0-|
E|---|

e|------------------------------------|
B|------------------------------------|
G|-6-6-6-6--6-2-2-2--2-4-4-4--4-1-1-1-|
D|-6-6-6-6--6-2-2-2--2-4-4-4--4-2-2-2-|
A|-4-4-4-4--4-0-0-0--0-2-2-2--2-2-2-2-|
E|------------------------------------|

e|-------------------------------------------------|
B|-------------------------------------------------|
G|---------2---------------2---------------2-------|
D|-2-------2-------2-------2-------4-------2-------|
A|-2-(16x)-0-(16x)-2-(16x)-0-(16x)-4-(16x)-0-(36x)-|
E|-0---------------0---------------2---------------|

e|----------|
B|----------|
G|-9-8------|
D|-9-8-9--2-|
A|-7-6-9--2-|
E|-----7--0-|



----
LEAD
----
the verses and choruses are really faint
so I'm not 100% sure of anything except the intro and outro


e|-12-11----11----9----------|
B|-------12----12----9-------|
G|------------------------11-|
D|---------------------------|
A|---------------------------|
E|---------------------------|

e|-----------------------------------------------------------------|
B|-----------------------------------------------------------------|
G|-9~------------------------------11~-------------13~-------------|
D|-----------------------------------------------------------------|
A|-----------------------------------------------------------------|
E|-----------------------------------------------------------------|

rest a while

e|-----------|
B|-9/7\9/7\9-|
G|-----------|
D|ha-a-a-ave-|
A|-----------|
E|-----------|

e|-5p4p0-7p4p0-5p4p0-7p4p0-----777------121212/0-4p0-0-5p0-0-7p0-0-5p0-0-----777----12121212-12/-|
B|----------------------------7777----12121212------------------------------7777----12121212-12/-|
G|-------------------------\8------\9------------------------------------\8------\9--------------|
D|-----------------------------------------------------------------------------------------------|
A|-----------------------------------------------------------------------------------------------|
E|-----------------------------------------------------------------------------------------------|


e|-12-12----12-12----12-12----12-12----| 3x
B|-12-12----12-12----12-12----12-12----|
G|--9--9-----9--9-----9--9-----9--9----|
D|-------------------------------------|
A|-------------------------------------|
E|-------------------------------------|

e|-4p0-0-5p0-0-7p0-0-5p0-0----7777-------------------|
B|----------------------------7777------9/7\9/7\9----| slide down from somewhere
G|-------------------------\8------\9--pe-e-e-e-eace-|
D|---------------------------------------------------|
A|---------------------------------------------------|
E|---------------------------------------------------|

e|-5p4p0-7p4p0-5p4p0-7p4p0-----777------121212/0-4p0-0-5p0-0-7p0-0-5p0-0-----777----12121212-12/-|
B|----------------------------7777----12121212------------------------------7777----12121212-12/-|
G|-------------------------\8------\9------------------------------------\8------\9--------------|
D|-----------------------------------------------------------------------------------------------|
A|-----------------------------------------------------------------------------------------------|
E|-----------------------------------------------------------------------------------------------|

First Part of Second Chorus:
e|-0-4-5-0-2-4---------------------|
B|-------------0-4-5-0-2-4-0-4-5-0-|
G|---------------------------------|
D|---------------------------------|
A|---------------------------------|
E|---------------------------------|

Outro:
e|-12-11------|
B|-------12---|
G|------------|
D|----------2-|
A|----------2-|


Important: The song above is NOT stored on the Chordie server. The original song is hosted at www.xguitar.com. Chordie works as a search engine and provides on-the-fly formatting. Chordie does not index songs against artists/composers will. To remove this song please click here.

This song is displayed as text-only. Transposing and tuning is only available for chordpro-songs.

Rating click stars to rate

Layout
Accuracy

SHARE PAGE  



You need to log in to post comments