Guitar Tabs, Chords and Lyrics


The Velourium Camper II: Backend of Forever    Coheed and Cambria



~ - let ring

Verse
Guitar 1 (28x)
e|-------------------------|
b|-------------------------|
g|---0-1-3-0-1---0---------|
d|-------------3---1-3-0-1-|
a|-3-----------------------|
e|-------------------------|
. . . . . . . . . . . .
Guitar 2
e|-------------------------|
b|-------------------------|
g|-------------------------|
d|-55-5--66-6--55-5--88-8--|
a|-33-3--33-3--66-6--55-5--|
e|-------------------66-6--|

Pre-Chorus
Both Guitars(4x)
e|-------------------------------------------------------------|
b|-------------------------------------------------------------|
g|-555555555555555555555555--------------------4444-4-2222-2---|
d|-555555555555555555555555-444444444444444444-4444-4-2222-2---|
a|-333333333333333333333333-444444444444444444-2222-2-0000-0---|
e|--------------------------222222222222222222-----------------|
........................ ..................

Chorus
Both Guitars (4x)
e|--------------------------------------------|
b|--------------------------------------------|
g|-----------99999999-------------------------|
d|-66666666--99999999--44444444--999999999999-|
a|-66666666--77777777--44444444--999999999999-|
e|-44444444-(00000000)-22222222--777777777777-|
............

Post Chorus
Guitar 1
e|-------------------------|
b|-------------------------|
g|---0-1-3-0-1---0---------|
d|-------------3---1-3-0-1-|
a|-3-----------------------|
e|-------------------------|
. . . . . . . . . . . .
e|-------------------------|
b|-------------------------|
g|---0-1-3-0-1---0---------|
d|-------------3---1-0-----|
a|-3-------------------3---|
e|-------------------------|
. . . . . . .

Both Guitars
e|-------------------------|
b|-------------------------|
g|---0-1-3-0-1---0---------|
d|-------------3---1-3-0-1-|
a|-3-----------------------|
e|-------------------------|

e|-------------------------|
b|-------------------------|
g|---0-1-3-0-1---0---------|
d|-------------3---1-0-----|
a|-3-------------------3---|
e|-------------------------|

e|-------------------------|
b|-------------------------|
g|---0-1-3-0-1---0---------|
d|-------------3---1-3-0-1-|
a|-3-----------------------|
e|-------------------------|
e|-------------------------|
b|-------------------------|
g|---0-1-3~---0-1-3~-------|
d|-------------------------|
a|-3--------3--------------|
e|-------------------------|


Play Verse

Play Pre-Chorus

Play Chorus

Outro
Both Guitars(8x)
e|---------------------------------------------|
b|---------------------------------------------|
g|-----------99999999--------------------------|
d|-99999999--99999999--44444444--66-66--22--22-|
a|-99999999--77777777--44444444--66-66--22--22-|
e|-77777777-(00000000)-22222222--44-44--00--00-|



Important: The song above is NOT stored on the Chordie server. The original song is hosted at www.xguitar.com. Chordie works as a search engine and provides on-the-fly formatting. Chordie does not index songs against artists'/composers' will. To remove this song please click here.

This song is displayed as text-only. Transposing and tuning is only available for chordpro-songs.

Login - add to songbook

Rating click stars to rate

Layout
Accuracy

SHARE PAGE  




You need to log in to post comments