Guitar Tabs, Chords and Lyrics


Blood Red Summer    Coheed and Cambria



Blood Red Summer
Band: Coheed and Cambria
Album: In Keeping Secrets Of Silent Earth: 3

This is my 5th tab and also one I am very proud of. This song is very fun
and good for beginners too. Trust me guys, the ladies will love you when
you play this song for them because they just love Coheed and Cambria.

Tablature Key

Pick Slide Up(ps\)
Pick Slide Down(ps/)
Hammer On(h)
Pull Off(p)

Intro

Part 1 Rythm
e)|----------------------------------------------------|
B)|----------------------------------------------------|
G)|----------------------------------------------------| X2
D)|9--9-9-9-9-9-9-9-9-9-9-9-9-8-9-9-9-9-9-9-9-9-9-9-9-9|
A)|7--7-7-7-7-7-7-7-7-7-7-7-7-6-7-7-7-7-7-7-7-7-7-7-7-7|
E)|----------------------------------------------------|
      . . . . . . . . . . . .PM   . . . . . . . . . . .PM

Part 1 Lead
e)---------------------------------------|
B)---------------------------------------|
G)---------------------------------------| X1
D)---------------------------------------|
A)------7---------7---------7------------|
E)0h7h9---7-7-7-9---7-0h7h9---7-9-5-4-2-0|

Part 2 Rythm
e)|----------------------------------------------------|
B)|----------------------------------------------------|
G)|----------------------------------------------------| X1
D)|----------------------------------------------------|
A)|7--7-7-7-7-7-7-7-7-7-7-7-7-6-7-7-7-7-7-7-7-7-7-7-7-7|
E)|5--5-5-5-5-5-5-5-5-5-5-5-5-4-5-5-5-5-5-5-5-5-5-5-5-5|
      . . . . . . . . . . . .PM   . . . . . . . . . . .PM

Part 2 Lead
e)|--------------------------------------------|
B)|--------------------------------------------|
G)|--------------------------------------------| X1
D)|--------------------------------------------|
A)|--------------------------------------------|
E)|0h2-4-5-4-0-2-4-0-0h2-4-5-4-0-2-4-0--4-5-7-4|

Part 1 Rythm
e)|----------------------------------------------------|
B)|----------------------------------------------------|
G)|----------------------------------------------------| X1
D)|9--9-9-9-9-9-9-9-9-9-9-9-9-8-9-9-9-9-9-9-9-9-9-9-9-9|
A)|7--7-7-7-7-7-7-7-7-7-7-7-7-6-7-7-7-7-7-7-7-7-7-7-7-7|
E)|----------------------------------------------------|
      . . . . . . . . . . . .PM   . . . . . . . . . . .PM

Part 1 Lead
e)---------------------------------------|
B)---------------------------------------|
G)---------------------------------------| X1
D)---------------------------------------|
A)------7---------7---------7------------|
E)0h7h9---7-7-7-9---7-0h7h9---7-9-5-4-2-0|

Part 2 Rythm
e)|----------------------------------------------------|
B)|----------------------------------------------------|
G)|----------------------------------------------------| X1
D)|----------------------------------------------------|
A)|7--7-7-7-7-7-7-7-7-7-7-7-7-6-7-7-7-7-7-7-7-7-7-7-7-7|
E)|5--5-5-5-5-5-5-5-5-5-5-5-5-4-5-5-5-5-5-5-5-5-5-5-5-5|
      . . . . . . . . . . . .PM   . . . . . . . . . . .PM

Part 2 Lead
e)|--------------------------------------------|
B)|--------------------------------------------|
G)|--------------------------------------------| X1
D)|--------------------------------------------|
A)|--------------------------------------------|
E)|0h2-4-5-4-0-2-4-0-0h2-4-5-4-0-2-4-0--4-5-7-4|

Part 1 Rythm
e)|----------------------------------------------------|
B)|----------------------------------------------------|
G)|----------------------------------------------------| X1
D)|9--9-9-9-9-9-9-9-9-9-9-9-9-8-9-9-9-9-9-9-9-9-9-9-9-9|
A)|7--7-7-7-7-7-7-7-7-7-7-7-7-6-7-7-7-7-7-7-7-7-7-7-7-7|
E)|----------------------------------------------------|
      . . . . . . . . . . . .PM   . . . . . . . . . . .PM

Part 1 Lead
e)---------------------------------------|
B)---------------------------------------|
G)---------------------------------------| X1
D)---------------------------------------|
A)------7---------7---------7------------|
E)0h7h9---7-7-7-9---7-0h7h9---7-9-5-4-2-0|

Part 2 Rythm
e)|----------------------------------------------------|
B)|----------------------------------------------------|
G)|----------------------------------------------------| X1
D)|----------------------------------------------------|
A)|7--7-7-7-7-7-7-7-7-7-7-7-7-6-7-7-7-7-7-7-7-7-7-7-7-7|
E)|5--5-5-5-5-5-5-5-5-5-5-5-5-4-5-5-5-5-5-5-5-5-5-5-5-5|
      . . . . . . . . . . . .PM   . . . . . . . . . . .PM

Part 2 Lead
e)|--------------------------------------------|
B)|--------------------------------------------|
G)|--------------------------------------------| X1
D)|--------------------------------------------|
A)|--------------------------------------------|
E)|0h2-4-5-4-0-2-4-0-0h2-4-5-4-0-2-4-0--4-5-7-4|

Pre-Chorus Rythm
e)|-------------------------------------------------------|
B)|-------------------------------------------------------|
G)|-------------------------------------------------------| X1
D)|9--9-9-9-9-9-9-9-9-9-9-9-9-8-9-9-9-9-9-9-9-9-9-9-9-9ps\|
A)|7--7-7-7-7-7-7-7-7-7-7-7-7-6-7-7-7-7-7-7-7-7-7-7-7-7ps\|
E)|-------------------------------------------------------|
      . . . . . . . . . . . .PM   . . . . . . . . . .PM

Pre-Chorus Lead
e)|--------------------|
B)|--------------------|
G)|--------------------| X1
D)|--------------------|
A)|---------77-66-55-44|
E)|4-5--7-4------------|

Chorus Rythm
e)|---------------------------------------------------------------|
B)|---------------------------------------------------------------|
G)|---------------------------------------------------------------|
D)|9-9-9-9-9-9-9-9-9-9-9-9-9-9-9-9-7-7-7-7-7-7-7-7-7-7-7-7-7-7-7-7|
A)|9-9-9-9-9-9-9-9-9-9-9-9-9-9-9-9-7-7-7-7-7-7-7-7-7-7-7-7-7-7-7-7|
E)|7-7-7-7-7-7-7-7-7-7-7-7-7-7-7-7-5-5-5-5-5-5-5-5-5-5-5-5-5-5-5-5|

e)|-------------------------------------------------------------------|
B)|-------------------------------------------------------------------| Play Whole Chorus
G)|9-9-9-9-9-9-9-9-9-9-9-9-9-9-9-9-8-9-9-9-9-9-9-9-9-9-9-9-9-9-9-9-9-9| 2 Times For Lead
D)|9-9-9-9-9-9-9-9-9-9-9-9-9-9-9-9-8-9-9-9-9-9-9-9-9-9-9-9-9-9-9-9-9-9| And Rythm Guitars
A)|7-7-7-7-7-7-7-7-7-7-7-7-7-7-7-7-6-7-7-7-7-7-7-7-7-7-7-7-7-7-7-7-7-7|
E)|-------------------------------------------------------------------|

Chorus Lead
e)|-------------------------------------------------------------------------------|
B)|-------------------------------------------------------------------------------|
G)|------------------------------------99----99----99---9-9---99----99----99---9-9|
D)|----7-6-6-----6-----------------7-9----99----99----9-----9----99----99----9----|
A)|7-9-------7-9---7--------7-9-11------------------------------------------------|
E)|------------------7-9-11-------------------------------------------------------|

Part 1 Rythm
e)|----------------------------------------------------|
B)|----------------------------------------------------|
G)|----------------------------------------------------| X1
D)|9--9-9-9-9-9-9-9-9-9-9-9-9-8-9-9-9-9-9-9-9-9-9-9-9-9|
A)|7--7-7-7-7-7-7-7-7-7-7-7-7-6-7-7-7-7-7-7-7-7-7-7-7-7|
E)|----------------------------------------------------|
      . . . . . . . . . . . .PM   . . . . . . . . . . .PM

Part 1 Lead
e)---------------------------------------|
B)---------------------------------------|
G)---------------------------------------| X1
D)---------------------------------------|
A)------7---------7---------7------------|
E)0h7h9---7-7-7-9---7-0h7h9---7-9-5-4-2-0|

Part 2 Rythm
e)|----------------------------------------------------|
B)|----------------------------------------------------|
G)|----------------------------------------------------| X1
D)|----------------------------------------------------|
A)|7--7-7-7-7-7-7-7-7-7-7-7-7-6-7-7-7-7-7-7-7-7-7-7-7-7|
E)|5--5-5-5-5-5-5-5-5-5-5-5-5-4-5-5-5-5-5-5-5-5-5-5-5-5|
      . . . . . . . . . . . .PM   . . . . . . . . . . .PM


Part 2 Lead
e)|--------------------------------------------|
B)|--------------------------------------------|
G)|--------------------------------------------| X1
D)|--------------------------------------------|
A)|--------------------------------------------|
E)|0h2-4-5-4-0-2-4-0-0h2-4-5-4-0-2-4-0--4-5-7-4|

Part 1 Rythm
e)|----------------------------------------------------|
B)|----------------------------------------------------|
G)|----------------------------------------------------| X1
D)|9--9-9-9-9-9-9-9-9-9-9-9-9-8-9-9-9-9-9-9-9-9-9-9-9-9|
A)|7--7-7-7-7-7-7-7-7-7-7-7-7-6-7-7-7-7-7-7-7-7-7-7-7-7|
E)|----------------------------------------------------|
      . . . . . . . . . . . .PM   . . . . . . . . . . .PM

Part 1 Lead
e)---------------------------------------|
B)---------------------------------------|
G)---------------------------------------| X1
D)---------------------------------------|
A)------7---------7---------7------------|
E)0h7h9---7-7-7-9---7-0h7h9---7-9-5-4-2-0|

Part 2 Rythm
e)|----------------------------------------------------|
B)|----------------------------------------------------|
G)|----------------------------------------------------| X1
D)|----------------------------------------------------|
A)|7--7-7-7-7-7-7-7-7-7-7-7-7-6-7-7-7-7-7-7-7-7-7-7-7-7|
E)|5--5-5-5-5-5-5-5-5-5-5-5-5-4-5-5-5-5-5-5-5-5-5-5-5-5|
      . . . . . . . . . . . .PM   . . . . . . . . . . .PM

Part 2 Lead
e)|--------------------------------------------|
B)|--------------------------------------------|
G)|--------------------------------------------| X1
D)|--------------------------------------------|
A)|--------------------------------------------|
E)|0h2-4-5-4-0-2-4-0-0h2-4-5-4-0-2-4-0--4-5-7-4|

Pre-Chorus (2) Rythm
e)|-------------------------------------------------------|
B)|-------------------------------------------------------|
G)|-------------------------------------------------------| X1
D)|9--9-9-9-9-9-9-9-9-9-9-9-9-8-9-9-9-9-9-9-9-9-9-9-9-9ps\|
A)|7--7-7-7-7-7-7-7-7-7-7-7-7-6-7-7-7-7-7-7-7-7-7-7-7-7ps\|
E)|-------------------------------------------------------|
      . . . . . . . . . . . .PM   . . . . . . . . . .

Part 1 Lead
e)---------------------------------------|
B)---------------------------------------|
G)---------------------------------------| X1
D)---------------------------------------|
A)------7---------7---------7------------|
E)0h7h9---7-7-7-9---7-0h7h9---7-9-5-4-2-0|

Chorus Rythm
e)|---------------------------------------------------------------|
B)|---------------------------------------------------------------|
G)|---------------------------------------------------------------|
D)|9-9-9-9-9-9-9-9-9-9-9-9-9-9-9-9-7-7-7-7-7-7-7-7-7-7-7-7-7-7-7-7|
A)|9-9-9-9-9-9-9-9-9-9-9-9-9-9-9-9-7-7-7-7-7-7-7-7-7-7-7-7-7-7-7-7|
E)|7-7-7-7-7-7-7-7-7-7-7-7-7-7-7-7-5-5-5-5-5-5-5-5-5-5-5-5-5-5-5-5|

e)|-------------------------------------------------------------------|
B)|-------------------------------------------------------------------| Play Whole Chorus
G)|9-9-9-9-9-9-9-9-9-9-9-9-9-9-9-9-8-9-9-9-9-9-9-9-9-9-9-9-9-9-9-9-9-9| 2 Times For Lead
D)|9-9-9-9-9-9-9-9-9-9-9-9-9-9-9-9-8-9-9-9-9-9-9-9-9-9-9-9-9-9-9-9-9-9| And Rythm Guitars
A)|7-7-7-7-7-7-7-7-7-7-7-7-7-7-7-7-6-7-7-7-7-7-7-7-7-7-7-7-7-7-7-7-7-7|
E)|-------------------------------------------------------------------|

Chorus Lead
e)|-------------------------------------------------------------------------------|
B)|-------------------------------------------------------------------------------|
G)|------------------------------------99----99----99---9-9---99----99----99---9-9|
D)|----7-6-6-----6-----------------7-9----99----99----9-----9----99----99----9----|
A)|7-9-------7-9---7--------7-9-11------------------------------------------------|
E)|------------------7-9-11-------------------------------------------------------|

Bridge Rythm
e)|------------------------------------------------------------------|
B)|------------------------------------------------------------------| Play Whole Bridge
G)|------------------------------------------------------------------| 2 times for both
D)|11-11-11-11-11-11-11-11-11-11-11-9-9-9-9-9-9-9-9-9-9-9-9-9-9-9-9-9| rythm and lead guitars
A)|11-11-11-11-11-11-11-11-11-11-11-9-9-9-9-9-9-9-9-9-9-9-9-9-9-9-9-9|
E)|-9--9--9--9--9--9--9--9--9--9--9-7-7-7-7-7-7-7-7-7-7-7-7-7-7-7-7-7|

e)|---------------------------------------------------------------|
B)|---------------------------------------------------------------|
G)|---------------------------------------------------------------|
D)|7-7-7-7-7-7-7-7-7-7-7-7-7-7-7-7-7-7-7-7-7-7-7-7-7-7-7-7-7-7-7-7|
A)|7-7-7-7-7-7-7-7-7-7-7-7-7-7-7-7-7-7-7-7-7-7-7-7-7-7-7-7-7-7-7-7|
E)|5-5-5-5-5-5-5-5-5-5-5-5-5-5-5-5-5-5-5-5-5-5-5-5-5-5-5-5-5-5-5-5|

Bridge Lead
e)|-----------------------------------------------------------------------|
B)|---------9-10-9-----------------9-10-9---------------------------------|
G)|6h9-9/11--------11-9-6-9p6-9/11--------11-9-9-8-11-9-8---9-8-9-11-9---8|
D)|-------------------------------------------------------9------------9--|
A)|-----------------------------------------------------------------------|
E)|-----------------------------------------------------------------------|

Part 1 Rythm
e)|----------------------------------------------------|
B)|----------------------------------------------------|
G)|----------------------------------------------------| X1
D)|9--9-9-9-9-9-9-9-9-9-9-9-9-8-9-9-9-9-9-9-9-9-9-9-9-9|
A)|7--7-7-7-7-7-7-7-7-7-7-7-7-6-7-7-7-7-7-7-7-7-7-7-7-7|
E)|----------------------------------------------------|
      . . . . . . . . . . . .PM   . . . . . . . . . . .PM


Part 1 Lead
e)---------------------------------------|
B)---------------------------------------|
G)---------------------------------------| X1
D)---------------------------------------|
A)------7---------7---------7------------|
E)0h7h9---7-7-7-9---7-0h7h9---7-9-5-4-2-0|

Part 2 Rythm
e)|----------------------------------------------------|
B)|----------------------------------------------------|
G)|----------------------------------------------------| X1
D)|----------------------------------------------------|
A)|7--7-7-7-7-7-7-7-7-7-7-7-7-6-7-7-7-7-7-7-7-7-7-7-7-7|
E)|5--5-5-5-5-5-5-5-5-5-5-5-5-4-5-5-5-5-5-5-5-5-5-5-5-5|
      . . . . . . . . . . . .PM   . . . . . . . . . . .PM

Part 2 Lead
e)|--------------------------------------------|
B)|--------------------------------------------|
G)|--------------------------------------------| X1
D)|--------------------------------------------|
A)|--------------------------------------------|
E)|0h2-4-5-4-0-2-4-0-0h2-4-5-4-0-2-4-0--4-5-7-4|

Part 1 Rythm
e)|----------------------------------------------------|
B)|----------------------------------------------------|
G)|----------------------------------------------------| X1
D)|9--9-9-9-9-9-9-9-9-9-9-9-9-8-9-9-9-9-9-9-9-9-9-9-9-9|
A)|7--7-7-7-7-7-7-7-7-7-7-7-7-6-7-7-7-7-7-7-7-7-7-7-7-7|
E)|----------------------------------------------------|
      . . . . . . . . . . . .PM   . . . . . . . . . . .PM

Part 1 Lead
e)---------------------------------------|
B)---------------------------------------|
G)---------------------------------------| X1
D)---------------------------------------|
A)------7---------7---------7------------|
E)0h7h9---7-7-7-9---7-0h7h9---7-9-5-4-2-0|

Part 2 Rythm
e)|----------------------------------------------------|
B)|----------------------------------------------------|
G)|----------------------------------------------------| X1
D)|----------------------------------------------------|
A)|7--7-7-7-7-7-7-7-7-7-7-7-7-6-7-7-7-7-7-7-7-7-7-7-7-7|
E)|5--5-5-5-5-5-5-5-5-5-5-5-5-4-5-5-5-5-5-5-5-5-5-5-5-5|
      . . . . . . . . . . . .PM   . . . . . . . . . . .PM

Part 2 Lead
e)|--------------------------------------------|
B)|--------------------------------------------|
G)|--------------------------------------------| X1
D)|--------------------------------------------|
A)|--------------------------------------------|
E)|0h2-4-5-4-0-2-4-0-0h2-4-5-4-0-2-4-0--4-5-7-4|

Pre-Chorus Rythm
e)|-------------------------------------------------------|
B)|-------------------------------------------------------|
G)|-------------------------------------------------------| X1
D)|9--9-9-9-9-9-9-9-9-9-9-9-9-8-9-9-9-9-9-9-9-9-9-9-9-9ps\|
A)|7--7-7-7-7-7-7-7-7-7-7-7-7-6-7-7-7-7-7-7-7-7-7-7-7-7ps\|
E)|-------------------------------------------------------|
      . . . . . . . . . . . .PM   . . . . . . . . . .PM

Pre-Chorus Lead
e)|--------------------|
B)|--------------------|
G)|--------------------| X1
D)|--------------------|
A)|---------77-66-55-44|
E)|4-5--7-4------------|

Bridge Rythm
e)|------------------------------------------------------------------|
B)|------------------------------------------------------------------| Play Whole Bridge
G)|------------------------------------------------------------------| 3 times for both
D)|11-11-11-11-11-11-11-11-11-11-11-9-9-9-9-9-9-9-9-9-9-9-9-9-9-9-9-9| rythm and lead guitars
A)|11-11-11-11-11-11-11-11-11-11-11-9-9-9-9-9-9-9-9-9-9-9-9-9-9-9-9-9|
E)|-9--9--9--9--9--9--9--9--9--9--9-7-7-7-7-7-7-7-7-7-7-7-7-7-7-7-7-7|

e)|---------------------------------------------------------------|
B)|---------------------------------------------------------------|
G)|---------------------------------------------------------------|
D)|7-7-7-7-7-7-7-7-7-7-7-7-7-7-7-7-7-7-7-7-7-7-7-7-7-7-7-7-7-7-7-7|
A)|7-7-7-7-7-7-7-7-7-7-7-7-7-7-7-7-7-7-7-7-7-7-7-7-7-7-7-7-7-7-7-7|
E)|5-5-5-5-5-5-5-5-5-5-5-5-5-5-5-5-5-5-5-5-5-5-5-5-5-5-5-5-5-5-5-5|

Bridge Lead
e)|-------------------------------------------------------------------------|
B)|---------9-10-9-----------------9-10-9-----------------------------------|
G)|6h9-9/11--------11-9-6-9p6-9/11--------11-9-9-8-9-11-9-8---9-8-9-11-9---8|
D)|---------------------------------------------------------9------------9--|
A)|-------------------------------------------------------------------------|
E)|-------------------------------------------------------------------------|

Outro

Bridge Rythm
e)|------------------------------------------------------------------|
B)|------------------------------------------------------------------|
G)|------------------------------------------------------------------|
D)|11-11-11-11-11-11-11-11-11-11-11-9-9-9-9-9-9-9-9-9-9-9-9-9-9-9-9-9|
A)|11-11-11-11-11-11-11-11-11-11-11-9-9-9-9-9-9-9-9-9-9-9-9-9-9-9-9-9|
E)|-9--9--9--9--9--9--9--9--9--9--9-7-7-7-7-7-7-7-7-7-7-7-7-7-7-7-7-7|

Bridge Lead
e)|--------------------------------------|
B)|---------9-10-9-----------------9-10-9|
G)|6h9-9/11--------11-9-6-9p6-9/11-------|
D)|--------------------------------------|
A)|--------------------------------------|
E)|--------------------------------------|



Important: The song above is NOT stored on the Chordie server. The original song is hosted at www.xguitar.com. Chordie works as a search engine and provides on-the-fly formatting. Chordie does not index songs against artists'/composers' will. To remove this song please click here.

This song is displayed as text-only. Transposing and tuning is only available for chordpro-songs.

Login - add to songbook

Rating click stars to rate

Layout
Accuracy

SHARE PAGE  




You need to log in to post comments