Guitar Tabs, Chords and Lyrics


The Crowing    Coheed and Cambria



Coheed & Cambria - The Crowing
Tabbed By: sparta783
Email: mtg_cc@yahoo.com

Tuning: Standard (E A D G B E)



*=pintched hormonic
.=palm mute

guit 1
E|-------------------------------------------------------------------||
B|-------------------------------------------------------------------||
G|-------------------------------------------------------------------||
D|-55-55-55-55-44-44-44-44-44-44-44-44-55-55-----------0-------------||
A|-77-77-77-77-77-77-77-77-55-55-55-55-33-33-3-2-0-------------------||
E|-------------------------------------------------3-0---------------||
guit 2 comes in after once
E|-------------------------------------------------------------------||
B|-88-88-88-88-1010-1010-1010-1010-77-77-77-77-8-8--8-8--------------||
G|-99-99-99-99-9-9--9-9--9-9--9-9--77-77-77-77-9-9--9-9--------------||
D|-99-99-99-99-9-9--9-9--9-9--9-9--77-77-77-77-1010-1010-----------0-||
A|-------------------------------------------------------3-2-0-------||
E|-------------------------------------------------------------3-0---||
guit 1
E|-------------------------------------------||
B|-------------------------------------------||
G|-------0-------0--------0-4½b-----0-4½b----||
D|-----4-------4---4----5---------5----------||
A|---2-------2--------3---------3------------||
E|-0-------0---------------------------------||
guit 2
E|---------------------------------------7---107--127-107-7----------||
B|-----8-9-8-------------8-9-8---------8---8-----8---8---8-8*fullb---||
G|-7-9-------9-7-9---7-9-------9-7-9---------------------------------||
D|-------------------------------------------------------------------||
A|-------------------------------------------------------------------||
E|-------------------------------------------------------------------||
guit 1
E|----------------|----------------|------------------|--------------||
B|----------------|----------------|------------------|--------------||
G|----------------|----------------|------------------|--------------||
D|-5-5-5-5----5-5-|----------------|-7-7-7-7--7-7-7-7-|--4-4---------||
A|-3-3-3-3----3-3-|-2--2---2--2--2-|-5-5-5-5--5-5-5-5-|--2-2---------||
E|----------------|-0--0---0--0--0-|------------------|--------------||
guit 2
E|-------------12-10-----------------||----------12-10----10-||
B|-12-13-12-12-------13-12-10-8-10-8-||-12-13-12-------13----||
G|-----------------------------------||----------------------||
D|-----------------------------------||----------------------||
A|-----------------------------------||----------------------||
E|-----------------------------------||----------------------||
guit 2
E|------------------------------||----------------------||
B|------------------------------||----------------------||
G|-------------9-7--------------||-------------9-7----7-||
D|-9-9-10-9--9-----10-9-7-5-7-5-||-9-9-10-9--9-----10---||
A|------------------------------||----------------------||
E|------------------------------||----------------------||
guit 1
E|-----------------------------||-----------------------------||
B|-----------------------------||-----------------------------||
G|-----------------------------||-----------------------------||
D|--------9-------10------12-9-||--------7-------8-------10-7-||
A|-7-7-7--7--7-7--7--7-7--7--7-||-5-5-5--5--5-5--5--5-5--5--5-||
E|-.-.-.-----.-.-----.-.-------||-.-.-.-----.-.-----.-.-------||
guit 1
E|------------------------------||
B|------------------------------||
G|------------------------------||
D|--------9-99------7-77--------||
A|-101010-7-77-7-77-5-55-101077-||
E|-8-8-8----..-5-55---..-8-8-99-||
   . . .         ..      . . ..
guit 2
E|----------------------------------||--------------------------------||
B|-------15-13-13-12----12----------||--------------------------------||
G|----12-------------14----14-12-14-||----11-14-12-12-11----11-12-----||
D|-14-------------------------------||-12----------------14-------14--||
A|----------------------------------||--------------------------------||
E|----------------------------------||--------------------------------||
guit 2
E|----------------------------||
B|----------------------------||
G|-16-14----------------------||
D|-------17-16-17-14-16-12-12-||
A|----------------------------||
E|----------------------------||

E|-------------------------------------------------||
B|-------------------------------------------------||
G|-------------------------------------------------||
D|-------------------------------------------------||
A|-2---------------2-------2-------2---------------||
E|-0-0-0-0-0-0-0-0-0-0-0-0-0-0-0-0-0-0-0-0-0-0-0-0-||
     . . . . . . .   . . .   . . .   . . . . . . .

E|-----------------------------------------------||------------------------------------||
B|---------------------10-12-13*-----------------||------------------------------------||
G|-------------9-11-12-.--.-----------------7*---||-------------------5*---------------||
D|-7---9-11-12-.-.--.---------------------7---9*-||-------------0h5h7------------5*----||
A|-.---.-.--.----------------------7-9-10--------||-------0h5h7----------------7----7*-||
E|-----------------------------------------------||-0h5h7----------------0-7-9---------||
                                                  |------alternate breakdown-----------|
E|-------------------------------------------||-----------------------||
B|-------------------------------------------||-----------------------||
G|---------------------5*40--5*40--5*40--4v*-||-5*40--5*40--5*40--4*5-||
D|-------------------------54----54----54----||-----54----54----54----||
A|-9-9--7-7--9-9--7-7------------------------||-----------------------||
E|-7-7--5-5--7-7--5-5------------------------||-----------------------||

E|---------||
B|---------||
G|---------||
D|---------||
A|-7--7--7-||
E|-5--5--5-||

E|--------------------------------------------||-------------||
B|--------------------------------------------||-------------||
G|--------------------------------------------||-------------||
D|-------7--------11------0-------7--------11-||-0--------12-||
A|----5--------9---------------5--------9-----||------10-----||
E|-3--------7---------------3--------7--------||---8---------||
guit 1
E|--------------------------------------------------------------------------------||
B|--------------------------------------------------------------------------------||
G|--------------------------------------------------------------------------------||
D|--------------------------------------------------------------------------------||
A|-9-9--9-9--9-9--9-9--9-9--9-9--9-9--9-9--5-5--5-5--5-5--5-5--5-5--5-5--5-5--5-5-||
E|-7-7--0-0--7-7--0-0--7-7--0-0--7-7--0-0--3-3--0-0--3-3--0-0--3-3--0-0--3-3--0-0-||
   . .  . .  . .  . .  . .  . .  . .  . .  . .  . .  . .  . .  . .  . .  . .  . .
guit 2
E|------------------------------------------------||
B|-10-12----10-12----10-12-14/15\14--10-----10-12-||
G|--------------------------------------11--------||
D|------------------------------------------------||
A|------------------------------------------------||
E|------------------------------------------------||


each 16x though im lazy and put 4
E|---------------------------------||
B|---------------------------------||
G|---------------------------------||
D|---------7-7-7-7---------9-9-9-9-||
A|-4-4-4-4-5-5-5-5-7-7-7-7-7-7-7-7-||
E|-2-2-2-2---------5-5-5-5-0-0-0-0-||

E|---------------||
B|---------------||
G|---------------||
D|---------------||
A|-9-9--7-7--5-7-||


Important: The song above is NOT stored on the Chordie server. The original song is hosted at www.xguitar.com. Chordie works as a search engine and provides on-the-fly formatting. Chordie does not index songs against artists'/composers' will. To remove this song please click here.

This song is displayed as text-only. Transposing and tuning is only available for chordpro-songs.

Login - add to songbook

Rating click stars to rate

Layout
Accuracy

SHARE PAGE  




You need to log in to post comments