Guitar Tabs, Chords and Lyrics


Cuts Marked in the March of Men    Coheed and Cambria



Coheed And Cambria - Cuts Marked In The March Of Men
Submitted By: Sqweeky
EMail: Blindside831@aol.com


VERSE
guitar 1
e|----------------------------------------------|
B|----------------------------------------------|
G|----------------------------------------------|
D|-4-4------------------------------------------|
A|-4-4--4-4-4-0-0--2-2-2------4-4-4-2-2-0-0-----|
E|-2-2-------------------4-4----------------4-4-|

guitar 2
e|---4--5h7p5--|-7-5---4----|
B|-------------|-----7---7--|
G|-6-----------|------------|
D|-------------|------------|
A|-------------|------------|
E|-------------|--palm mute-|

guitar 3
e|----------------------16-14--------------------------------------16-14-------------|
B|-------------17-15-17-------15-14h15p14-12--------------17-15-17-------15-14h15p14-|
G|-14-13h14p14--------------------trill-------14-13h14p14--------------------trill---|
D|-----------------------------------------------------------------------------------|
A|-----------------------------------------------------------------------------------|
E|-----------------------------------------------------------------------------------|

PRECHORUS
e|---------------------------------------|
B|---------------------------------------|
G|---------------9-9-9--7--7--7--7--7--7-|
D|-4/7--7-7--7/9-9-9-9--7--7--7--7--7--7-|
A|-4/7--7-7--7/9-7-7-7--5--5--5--5--5--5-|
E|-2/5--5-5--5/7-------------------------|

CHORUS
guitar 1
e|-------------------------------------------------|
B|-------------------------------------------------|
G|-7-7-7-7-7-7-------------------------------------|
D|-7-7-7-7-7-7-9-9-9-9-9-9-7-7-7-7-7-7-5-5-5-5-5-5-|
A|-5-5-5-5-5-5-9-9-9-9-9-9-7-7-7-7-7-7-5-5-5-5-5-5-|
E|-------------7-7-7-7-7-7-5-5-5-5-5-5-3-3-3-3-3-3-|

guitar 2
e|-0-5-7-9-10p0-9p0-7p0-|-0-5-7-9-12p0-10p0-9p0-|
B|----------------------|-----------------------|
G|----------------------|-----------------------|
D|----------------------|-----------------------|
A|----------------------|-----------------------|
E|-2x-------------------|-2x--------------------|

BREAKDOWN
e|---------------------------|
B|---------5-----------------|
G|-----------4---7-4---------|
D|-7-7-7-7-------------------|
A|-7-7-7-------5-----5-4---4-|


Important: The song above is NOT stored on the Chordie server. The original song is hosted at www.xguitar.com. Chordie works as a search engine and provides on-the-fly formatting. Chordie does not index songs against artists'/composers' will. To remove this song please click here.

This song is displayed as text-only. Transposing and tuning is only available for chordpro-songs.

Login - add to songbook

Rating click stars to rate

Layout
Accuracy

SHARE PAGE  




You need to log in to post comments