Guitar Tabs, Chords and Lyrics


In Keeping Secrets of Silent Earth: 3    Coheed and Cambria



Coheed and Cambria - In Keeping Secrets of Silent Earth: 3
Submitted By: Monty87
EMail: monty@yellowtoyou.com


pm = palm mute
/  = slide up
\  = slide down
h  = hammer
~  = let ring

tabbed rythm may be off
The part you think is a 2nd guitar in INTRO Part 2&3 is actually a distorted bass.
Enjoy.		-Monty


INTRO
Part1
e|---------------------------------------------------------------------------------------------------|
B|---------------------------------------------------------------------------------------------------|
G|-------------------------------------------------------------------------------------------------4-|
D|----6-6----6-6----6--7-6-4----6-6----6--6-7-9-7-6-6h7-----4-4----4-4----4--4/6-4-2-----2-2----2----|
A|-4------4------4----4----------------------------------2------2------2----2---------0------0-------|
E|--------------------------0------0----0---------------0----------------------------0---------------|

Guitar 2
e|--------------------------------------------------------|
B|-9--7----------9--12--10-9-7--7--6--4--6----------9--12-|
G|-------8-9-11-----------------------------8-9-11--------|
D|--------------------------------------------------------|
A|--------------------------------------------------------|
E|--------------------------------------------------------|

Part2
e|----------------------------------------------|
B|-5-5-5-4-4-4-5-5-5-4-4-4-5-5-5-4-4-4-7--5--4--|
G|-6-6-6-6-6-6-6-6-6-6-6-6-6-6-6-6-6-6-6--6--6--|
D|-6-6-6-6-6-6-6-6-6-6-6-6-6-6-6-6-6-6-6--6--6--|
A|----------------------------------------------|
E|----------------------------------------------|

Part3
e|------------------------------------7-----7-----7-----7-----4-----4-----4-----4-----|
B|--------------------------------------4-----4-----4-----4-----4-----4-----4-----4---|
G|-------------1-----4------------6-6-----6-----6-----6-----6-----6-----6-----6-----6-|
D|-------1-2-4---4-2---2-1-2-1--------------------------------------------------------|
A|-1-2-4-----------------------2------------------------------------------------------|
E|------------------------------------------------------------------------------------|
pm                                . . . . . . . . . . . . . . . . . . . . . . . . . .

VERSE
Part1
e|--------------------------------------------|
B|--------------------------------------------|
D|--------------------------------------8-9-8-|
G|-6-6-----6----------------------------------|
A|-4-4-4-7---7-6--6h7-9-9x--9-9-9-7-7x--6-7-6-|
E|--------------------7-7x--7-7-7-5-5x--------|
pm. .                   . .   . . . . .

Part2
e|------------------------------------------|
B|------------------------------------------|
D|------------------------------------------|
G|-------------------------4----------------|
A|-4-4x--4-4x--4-4x--4-4x--6-6-7-9--7-7-6-6-|
E|-2-2x--2-2x--2-2x--2-2x----4-5-7--5-5-4-4-|
pm                                  . . . .

CHORUS
Part1
e|----------------------------------------------------------------------------------|
B|----------------------------------------------------------------------------------|
G|-6-6-6-6-6-6-6-6-6-6-6-6-6-6-6-6--------------------------------------------------|
D|-6-6-6-6-6-6-6-6-6-6-6-6-6-6-6-6--------11---------11\9----------9\7----------7/9-|
A|-4-4-4-4-4-4-4-4-4-4-4-4-4-4-4-4--------------------------------------------------|
E|---------------------------------0-0-0-0-9--0-0-0-0-9\7--0-0-0-0-7\5--0-0-0-0-5/7-|
pm                                 . . . .    . . . .      . . . .      . . . .

Part2
e|---------------------------------------------------------------------------------|
B|---------------------------------------------------------------------------------|
G|---------------------------------------------------------------------------------|
D|-7-7-7-7-7-7-7-7-7-7-7-7-7-7-7-7-----7-----7-----7-----7-----7-----7-----7-----7-|
A|-7-7-7-7-7-7-7-7-7-7-7-7-7-7-7-7-----7-----7-----7-----7-----7-----7-----7-----7-|
E|-5-5-5-5-5-5-5-5-5-5-5-5-5-5-5-5-5-5-5-5-5-5-5-5-5-5-5-5-5-5-5-5-5-5-5-5-5-5-5-5-|
pm                                 . .   . .   . .   . .   . .   . .   . .   . .

BRIDGE
Part 1								   4th Time Ending
e|----------------------------------------------------------------|---------------------------------|
B|----------------------------------------------------------------|---------------------------------|
G|----------------------------------------------------------------|---------------------------------|
D|-2-2----------2-2----------2-2----------------2-5-2-5-4-2-------|---------------2-5-2-5-4-2-----2-|
A|-2-2--2h3-2~--2-2--2h3-5~--2-2--2h3-2~--0-0-3-------------5-3-2-|-2h3-2~--0-0-3-------------5-3-2-|
E|-0-0----------0-0----------0-0----------------------------------|-------------------------------0-|

Part 2
Guitar 1
e|-------------------------------------------------------------|
B|---0-1-3-0-1---0-1-3-0-1---0-1-3-0-1---5-6-8-6-5---5-----5---|
G|-------------------------------------------------------------|
D|-2-----------2-----------2-----------7-----------5---5-7---7-|
A|-------------------------------------------------------------|
E|-------------------------------------------------------------|

Guitar 2
e|-10-----10-----12-----10-----10-----10-----8-7---7---|
B|----8-8----8-8----8-8----8-8----8-8----8-8-----8---8-|
G|-----------------------------------------------------|
D|-----------------------------------------------------|
A|-----------------------------------------------------|
E|-----------------------------------------------------|
pm  . . .  . . .  . . .  . . .  . . .  . . . . . . . .

e|-10-----10-----12-----10-----8-7---10-7---12-7---10-7------------------|
B|----8-8----8-8----8-8----8-8-----8------8------8------8----------------|
G|-----------------------------------------------------------------------|
D|---------------------------------------------------------5-5-5-5-5-5-4-|
A|---------------------------------------------------------5-5-5-5-5-5-4-|
E|---------------------------------------------------------3-3-3-3-3-3-2-|
pm  . . .  . . .  . . .  . . . . . .  . . .  . . .  . . .

Part 3
e|---------------------------------------|
B|---------------------------------------|
G|-------0--0---------------------0------|
D|------------3-2-0-2----------0-----0---|
A|----3---------------3-----5----------2-|
E|-1---------------------3---------------|

Part 4
e|--------------------------------------------------------------------|
B|--------------------------------------------------------------------|
G|-4-------------------------------4----------------------------------|
D|-2--------3--2---3---------------2---------3--2---3--2-3-5--2-0-----|
A|-0---------------3--------5--3-2-0----------------3-------------3-2-|
E|-----------------1--------------------------------1-----------------|

Part 5
e|-----------------------------------------------|
B|-----------------------------------------------|
G|-2----7----5----7--5--------5p4-2-0-5p4-2-0--2-|
D|-2----7----5----------7--5-------------------2-|
A|---------------------------------------------0-|
E|-----------------------------------------------|


For the end of the song play INTRO Part 1 Guitar 1&2 once
Then INTRO Part 2&3 with CHORUS Part 1&2.


Last Chord
e|---|
B|---|
G|-6-|
D|-6-|
A|-4-|
E|---|



Important: The song above is NOT stored on the Chordie server. The original song is hosted at www.xguitar.com. Chordie works as a search engine and provides on-the-fly formatting. Chordie does not index songs against artists'/composers' will. To remove this song please click here.

This song is displayed as text-only. Transposing and tuning is only available for chordpro-songs.

Login - add to songbook

Rating click stars to rate

Layout
Accuracy

SHARE PAGE  




You need to log in to post comments