Guitar Tabs, Chords and Lyrics


The Ring in Return    Coheed and Cambria



this is the little piano rift in the beginning of the first cd,
 this riff is originally played on the first cd at the end of Everything Evil.
 the full song is played at the end of God Send Conspirator. it is awesome.
 coheed rules!


right hand part
e|------------10-17---15p13p12-12---10-12-13--------|
B|--10--12-13--------------------------------13-12--|
G|--------------------------------------------------|
D|--------------------------------------------------|
A|--------------------------------------------------|
E|--------------------------------------------------|

e|------------10-17---15p13p12-12-------------------|
B|--10--12-13-----------------------13-13--12-------|
G|--------------------------------------------------|
D|--------------------------------------------------|
A|--------------------------------------------------|
E|--------------------------------------------------|

left hand part
e|---0---------------------------------------------|
B|----1---1----0----0------------------------------|
G|--2------2----0----0-----------------------------|
D|-------3----2----2-------------------------------|
A|-------------------------------------------------|


Important: The song above is NOT stored on the Chordie server. The original song is hosted at www.xguitar.com. Chordie works as a search engine and provides on-the-fly formatting. Chordie does not index songs against artists'/composers' will. To remove this song please click here.

This song is displayed as text-only. Transposing and tuning is only available for chordpro-songs.

Login - add to songbook

Rating click stars to rate

Layout
Accuracy

SHARE PAGE  




You need to log in to post comments