Guitar Tabs, Chords and Lyrics


Three Evils (Embodied in Love and Shadow)    Coheed and Cambria



Coheed And Cambria
Three Evils
Tabbed by Matt Gordy
() = vibrato
*  = artificial harmonic
  = pickslide
/  = fingerslide
h  = hammer on

Intro

Claudio

e|--------------------------------|
B|--------------------------------|
G|----------------1111-11---------|
D|1111-11-1212-12-1111-11-1212-12-| x2
A|1212-12-1212-12---------1212-12-|
E|--------------------------------|

Verse

Claudio

e|--------------------------------|
B|--------------------------------|
G|--------------1111-11-----------|
D|1111--11-1212-1111-11-1212-12---| x2
A|1212--12-1212---------1212-12---|
E|--------------------------------|

e|------------------------------------|
B|------------------------------------|
G|------------------11111111----------|
D|11111111-12121212-11111111-12121212-|
A|12121212-12121212----------12121212-|
E|------------------------------------|

e|--------------|
B|--------------|
G|--------------|
D|--------------|
A|0>>>>-9~-9-9~-|
E|0>>>>-7~-7-7~-|

Travis

e|-----------------------|
B|-----------------------|
G|-----------------------|
D|77-71212-121616-161612-| x2
A|xx-xx-x--x-x-x--x-x-x--|
E|55-51010-101414-141010-|

e|--------------------------------|
B|--------------------------------|
G|--------------------------------|
D|7777-12121212-16161616-12121212-|
A|xxxx-x-x-x-x--x-x-x-x--x-x-x-x--|
E|5555-10101010-14141414-10101010-|

e|-----------------|
B|-----------------|
G|-----------------|
D|-----------------|
A|9999999999999999-|
E|7777777777777777-|

Repeat this twice then...

Claudio & Travis
                  Good -bye
e|------------------------------------------------|
B|------------------------------------------------|
G|------------------------------------------------|
D|------------------------------------------------|
A|9999999999999999-11----121212121212121212121212-|
E|7777777777777777-9-----101010101010101010101010-|

Chorus

Claudio

e|-------------------------------------------------|
B|-------------------------------------------------|
G|-------------------------------------------------|
D|-------------------------------------------------|
A|77777777-99994444-555555555555---5-4---4-5---5-4-|
E|55555555-77772222-333333333333-5-----5-----5-----|
pm .......  .......  ...........

Travis

e|---------------------------------5--------------------|
B|---9----5----9----5---9---5-----------5----9----5-----|
G|------------------------------------------------------|
D|77---77---77---77---7---7---7-77---77---77---77---777-|
A|------------------------------------------------------|
E|------------------------------------------------------|
pm..   ..   ..   ..   .   .   . ..   ..   ..   ..   ...

cont...

e|---4---------4--------4----------4----------------------------|
B|--------5---------5-------5-----------5-----------------------|
G|----------------------------------------------7-6---7-6---7-6-|
D|55---55---55---55---5---5---5-55---55---55--7-----7-----7-----| x2
A|--------------------------------------------------------------|
E|--------------------------------------------------------------|
pm..   ..   ..   ..   .   .   . ..   ..   ..

Repeat
Repeat everything except on the last chorus end with...


  Claudio           Travis
e|----------------- -----|
B|----------------- -----|
G|----------------- -----|
D|----------------- -----|
A|555555555555/0--- 10/0-|
E|333333333333/0--- -----|

Following you across the interstate...

Claudio & Travis

e|-------------------------------------------|
B|-------------------------------------------|
G|---------------(4)*---(2)*-----------------|
D|----------------------------------77777777-| x4
A|44444444-0h0405----2h4-----xx-7-7-55555555-|
E|22222222-------------------xx-5-5-55555555-|

After this sustain the f# power chord

On the wrong way out...

Claudio & Travis

e|--------------------------------------------------|
B|--------------------------------------------------|
G|--------------------------------------------------|
D|--------------------------------------------------| x3
A|999999999999-121212121212-1111-1111-1111----11-11-|
E|777777777777-101010101010-9-9--9-9--9-9-----9--9--|

Dear my friends...

Claudio

e|----------------------------------------------------|
B|----------------------------------------------------|
G|----------------------------------------------------|
D|----------------------------------------------------|
A|777777777777-777777777777-444444444444-222222222222-|
E|555555555555-444444444444-222222222222-000000000000-|

cont...

e|-------------------------------------|
B|-------------------------------------|
G|-------------------------------------|
D|7777777777777777---------------------| Repeat
A|5555555555555555---5-4---5-4---5-4---|
E|-----------------5-----5-----5-----7-|

Repeat this until the end of the song

Travis

e|------------------|
B|------------------|
G|9-13-14~-9-13-14~-|
D|------------------|
A|------------------|
E|------------------|

e|----------------|
B|----------------|
G|-----14------13-|
D|1414----1414----| x6
A|----------------|
E|----------------|

e|-------------------------------------------|
B|-------------------------------------------|
G|-------------------------------------------|
D|-----21------21------21------21------21----|
A|1919----1919----1919----1919----1919----19-|
E|-------------------------------------------|

e|------------------------------------------------------|
B|------------------------------------------------------|
G|---18-19-21-18-19-21-18-19-21-18-19-21-18-19-18-16----|
D|19-------------------------------------------------19-|
A|------------------------------------------------------|
E|------------------------------------------------------|

Repeat

Pull the trigger...

e|---------------------------------------------------------------------|
B|---------------------------------------------------------------------|
G|---------------------------------------------------------------------|
D|14~-21-19-18-21-19-18-13~-21-19-18-21-19-18-11~-21-19-18-21-19-18-9~-|
A|---------------------------------------------------------------------|
E|---------------------------------------------------------------------|

For the last part when Claudio plays the (x57xxx) play the previous riff

Repeat until the end of the song

Fin.



Important: The song above is NOT stored on the Chordie server. The original song is hosted at www.xguitar.com. Chordie works as a search engine and provides on-the-fly formatting. Chordie does not index songs against artists'/composers' will. To remove this song please click here.

This song is displayed as text-only. Transposing and tuning is only available for chordpro-songs.

Login - add to songbook

Rating click stars to rate

Layout
Accuracy

SHARE PAGE  




You need to log in to post comments