Guitar Tabs, Chords and Lyrics


Junesong Provision    Coheed and Cambria



Coheed and Cambria
Junesong Provision

Dropeed D Tuning - D-A-D-G-B-E

Palm Mute  = *
Slide Up   = /
Slide Down = \

Intro (Guitar 2)

E|---------------------------------------------------------------|
B|---------------------------------------------------------------|
G|---------------------------------------------------------------|
D|--4--4-4-------------------------7--7-------------7-7-7-7-6-7--| (7x)
A|--2--2-2-0-----4-----0-----0-----5--5-------------5-5-5-5-4-7--|
D|---------0-0-0-4-4-4-0-0-0-0-0-0-5--5-5-5-5-5-5-5-----------7--|
             * *   * *   * *   * *      * * * * * *

Fill #1 (Guitar 1) - Played During Intro

E|------------------------------------10--------10---------10---------10--------10--|
B|-------------------------10--7-8h10----7-8h10----7-8h-10----7-8h-10----7-8h10-----|
G|-------4------4---4--7-4----------------------------------------------------------|
D|--/4-5---4-5----4-----------------------------------------------------------------|
A|----------------------------------------------------------------------------------|
D|----------------------------------------------------------------------------------|

Fill #2 (Guitar 1) - Played During Intro

E|-----------------------------10-----10-----------------|
B|-------------------------10-----7-7----7-7-7-10-8-7----|
G|-------4------4---4--7-4----------------------------9--|
D|--/4-5---4-5----4--------------------------------------|
A|-------------------------------------------------------|


Important: The song above is NOT stored on the Chordie server. The original song is hosted at www.xguitar.com. Chordie works as a search engine and provides on-the-fly formatting. Chordie does not index songs against artists'/composers' will. To remove this song please click here.

This song is displayed as text-only. Transposing and tuning is only available for chordpro-songs.

Login - add to songbook

Rating click stars to rate

Layout
Accuracy

SHARE PAGE  




You need to log in to post comments