Guitar Tabs, Chords and Lyrics


Time Consumer    Coheed and Cambria



Coheed and Cambria
    Time Consumer

(Travis)

1’s= 10’s

|----5-------5-------5-------5---|
|----8-68----8-68----8-68----8-6-|
|7---7-(7)---7-(7)---7-(7)---7---|
|--------------------------------|
|--------------------------------|
|--------------------------------|

|--6-86--5-35-35-----------------|
|-6----------------8-10----------|  2x
/7----------------7----8--8--8--8|
|--------------------------------|
|--------------------------------|
|--------------------------------|

|----5-------5---5---------------|
|--6--6----6---6-5---------------|
|/7-7--\1/7-7---77---------------|
|----------------0---------------|
|--------------------------------|
|--------------------------------|

|----5-------5-------5-------5---|
|----8-68----8-68----8-68----8-6-|
|----7-(7)---7-(7)---7-(7)---7---|
|--------------------------------|
|--------------------------------|
|--------------------------------|

|13----13----13----13----13------|17----17----17----17----17------|
|--15----15----15----15----15----|--18----18----18----18----18----|
|----15----15----15----15----15--|----19----19----18----19----19--|
|--------------------------------|--------------------------------|
|--------------------------------|--------------------------------|
|--------------------------------|--------------------------------|

|--20----20----20----20----20----|--20----20----20----20----20----|
|----18----18----18----18----18--|----18----18----18----18----18--|
|19----19----19----19----19----19|19----19----19----19----19------|
|--------------------------------|--------------------------------|
|--------------------------------|--------------------------------|
|--------------------------------|--------------------------------|

|----5-------5---5---------------|
|--6--6----6---6-5---------------|
|/7-7--\1/7-7---77---------------|
|----------------0---------------|
|--------------------------------|
|--------------------------------|


Verse
|--------------------------------|
|--------------------------------|4x
|--------------------------------|
|11x11x11x11x11xx11111111111101--|
|88x88x88x88x88xx88877788877701--|
|88x88x88x88x88xx-------------1--|
                 xxxxxxxxxxxxxx
                               4th time no palm mute

|--------------------------------|
|--1--1--1--1--1-----------------|
|78-78-78-78-78-71111111111111---|3x
|----------------11111111111111--|
|----------------88877788877781--|
|-----------------------------1--|

|--------------------------------|
|--------------------------------|
|-----------------1111111111111--|
|11x11xx11x11x111111111111111111-|
|88x88xx88x88x888888877788877771-|
|88x88xx88x88x8888-------------1-|


Chorus
|---------------------------------|
|---------------------------------|
|17~~~~~~9~~~10~~17~~~~~~~9~~~10~~|
|---------------------------------|
|15------7---8---15-------7---8---|
|---------------------------------|

|------------------------------------|
|------------------------------------|
|-99-9\777-55-5/777-99-9\777-55-5/7/-|
|------------------------------------|
|------------------------------------|
|------------------------------------|

Bridge
|--------------------------------|
|--------------------------------|
|--5--5----5--5--77x77x99x55x5---|
|03-33-3302-2--2-77x77x99x55x5---|
|----------------55x55x77x33x3---|
|--------------------------------|

for the last part written on Claudio’s
part, just tap on these strings with
distortion to get the same affect
in the song:

E|-5-|
B|-6-|
G|-7-|
 (Claudio)

|----5-------5-------5-------5---|
|-6-------6------5-5p-----6----6-|
/7--7--77---7--7--7----77--7-----|
|---0-----------0--------0--0----|
|--------------------------------|
|--------------------------------|

|-5--5--6--6--6---5--5--5--5--5--|
|--6--6--6--6--6---6--6--6--6--6-|
|7--7--7--7--7---7--7--7--7--7--7|
|--------------------------------|
|--------------------------------|
|--------------------------------|

|----8-------8-------8-------8--5|
|-6---6---6---6---6---6---6---6--|
/7--7---/7--7---/7--7---/7--7----|
|--------------------------------|
|--------------------------------|
|--------------------------------|

|-5--5----0--0--5----------------|
|--6--6-6--6--6-6----------------|
/7--7--7-------77----------------|
|--------8--8---0----------------|
|--------------------------------|
|--------------------------------|

Verse
|--------------------------------|
|--------------------------------|4x
|--------------------------------|
|11x11x11x11x11xx11111111111101--|
|88x88x88x88x88xx88877788877701--|
|88x88x88x88x88xx-------------1--|


Chorus   Guitar 1
|--------------------------------|
|--------------------------------|
|--------------------------------|
|33333333222233330000000022223333|
|33333333333333330000000033333333|
|33333333222233330000000022223333|

|--------------------------------|
|--------------------------------|
|--------------------------------|
|x11x1111x11x1111x11x1111x11x1111|
|x88x8888x88x8888x88x8888x88x8888|
|x88x8888x88x8888x88x8888x88x8888|


little solo (clean)
|--8----8----8-------------------|
|---10---10------just listen for-|
|10---10---10----the beat--------|
|--------------------------------|
|--------------------------------|
|--------------------------------|
"wait…now…here…"
|--------------------------------|
|--------------------------------|
|--5--5----5--5--77x77x99x55x5---|
|03-33-3302-2--2-77x77x99x55x5---|
|----------------55x55x77x33x3---|
|--------------------------------|

|--------------------------------|
|--------------------------------|
|----------------77x77x99x55x5---|
|333333335555555577x77x99x55x5---|
|333333335555555555x55x77x33x3---|
|3333333355555555----------------|


|-----------------------------------------------------|
|-----------------------------------------------------|
|----------------77x77x77x77x777x77x77x77x77x777x5~~~~|
|333333335555555577x77x77x77x777x77x77x77x77x777x5~~~~|
|333333335555555555x55x55x55x555x55x55x55x55x555x3~~~~|
|3333333355555555--------------------------------3~~~~|

|
Back to intro
|

Then:
|--------5-------5-------5-------|
|----86h86---86h86---86h86---86h8|
|----7---7---7---7---7---7---7---|
|--------------------------------|
|--------------------------------|
|--------------------------------|





Important: The song above is NOT stored on the Chordie server. The original song is hosted at www.xguitar.com. Chordie works as a search engine and provides on-the-fly formatting. Chordie does not index songs against artists'/composers' will. To remove this song please click here.

This song is displayed as text-only. Transposing and tuning is only available for chordpro-songs.

Login - add to songbook

Rating click stars to rate

Layout
Accuracy

SHARE PAGE  




You need to log in to post comments