Guitar Tabs, Chords and Lyrics


Confession   Cold



Cold - Confession
Tuning - Drop all strings 2 whole steps (4 frets) from standard.

Transposed by GREG (Acoldnight@cs.com)

FOR GUITAR 1 USE MEDIUM DISTORTION WITH FLANGER, AND DELAY.

INTRO/VERSE: (guitar 1, let ring)  
C---------------0------------------0---------------------0-----------------0-------   
G ----------6--------6--------6--------6-----------6--------6--------6--------6---- 
D#---7-------------------7--------------------5------------------5----------------- 
A#---------------------------------------------------------------------------------
F----------------------------------------------------------------------------------
C----------------------------------------------------------------------------------
-------------0--------------------0------------------0-------------------0--------
--------6----------6---------6---------6--------6----------6--------6---------6---
----------------------------------------------------------------------------------
---7--------------------7-------------------8-------------------8-----------------
----------------------------------------------------------------------------------
----------------------------------------------------------------------------------

CHORUS:  GUITAR 2 (HEAVY DISTORTION).   POWER CHORDS.  
X = SCRATCH
----------------------------------|-----------------------------------
----------------------------------|-----------------------------------
----------------------------------|-----------------------------------
-----7-----------5----------------|------------------------------5----
-----5//////////-3//////////////--|7-7------7-7------7(8)--------3///-
----------------------------------|5-5-XXXX-5-5-XXXX-5(6)-6/////------

BRIDGE:  GUITAR 1.  LET RING
H = HAMMER-on
----------------------------------------------------------------------------------
----------------------------------------------------------------------------------
-----2-3--2-H3--2--------2-3--2-H3--2----------2--3---2---------------------------
--0----------------------------------------------------------------3----------2---
--------------------0--3-----------------0-----------------------3---3------2---2-
-------------------------------------------3--------------0--1----------0---------

ANOTHER GUITAR LAYERS OVER THE END OF THE BRIDGE 
LIKE THIS;
----11---12---11---9----------------------
-------------------------12---11---12---9-
------------------------------------------
------------------------------------------
------------------------------------------
------------------------------------------

tabbed by Acoldnight@cs.com


Important: The song above is NOT stored on the Chordie server. The original song is hosted at www.xguitar.com. Chordie works as a search engine and provides on-the-fly formatting. Chordie does not index songs against artists'/composers' will. To remove this song please click here.

This song is displayed as text-only. Transposing and tuning is only available for chordpro-songs.

Login - add to songbook

Rating click stars to rate

Layout
Accuracy

SHARE PAGE  




You need to log in to post comments