Guitar Tabs, Chords and Lyrics


End Of The World   Cold



Band: Cold 
Song: End Of The World 
Tuning: Drop D one-step (C G C F A D)  
Tabed By ATS

Verse (only before virst chorus) 
D|-------------------- 
A|-------------------- 
F|-10-(10)-(10)-(10)--  
C|-------------------- 
G|-------------------- 
C|--------------------  
Verse  
D|-------------------- 
A|-18-(18)-(18)-(18)-- 
F|--------------------  
C|-------------------- 
G|-------------------- 
C|--------------------  

Chorus 
D|---------------------------------------------------------------------- 
A|---------------------------------------------------------------------- 
F|---------------------------------------------------------------------- 
C|---------------------------------------------------------------------- 
G|--5-5-5-5-5-5-5-5--8-8-8-8-8-8-8-8--1-1-1-1-1-1-1-1--0-0-0-0-0-0-0-0-- 
C|--5-5-5-5-5-5-5-5--8-8-8-8-8-8-8-8--1-1-1-1-1-1-1-1--0-0-0-0-0-0-0-0-- 
Bridge 
D|---------------------------------------------------------------------- 
A|---------------------------------------------------------------------- 
F|---------------------------------------------------------------------- 
C|-----------------------------------------------------7-7-7-7-7-7-7-7-- 
G|--5-5-5-5-5-5-5-5--8-8-8-8-8-8-8-8--1-1-1-1-1-1-1-1--5-5-5-5-5-5-5-5-- 


Important: The song above is NOT stored on the Chordie server. The original song is hosted at www.xguitar.com. Chordie works as a search engine and provides on-the-fly formatting. Chordie does not index songs against artists/composers will. To remove this song please click here.

This song is displayed as text-only. Transposing and tuning is only available for chordpro-songs.

Login - add to songbook

Rating click stars to rate

Layout
Accuracy

SHARE PAGE  




You need to log in to post comments