Guitar Tabs, Chords and Lyrics


It's All Good   Cold



Cold - It's All Good
Tune Down 2 half steps + Drop D
Low To High - C G C F A D

Riff I: (the clean lines, with echo)
|--------2-----------------------------------------------------|
|------3---3-----------------3---------------------------------|
|----4-------4-------------5---5-------------------------------|
|--2---------------------5-------5-----------------------------|
|----------------------3---------------------------------------|
|--------------------------------------------------------------|

Pre-Chorus: (slowly release the palm muting)
|--------------------------------------------------------------|
|--------------------------------------------------------------|
|--5-5-5-5-5-5-5-----------------------------------------------|
|--5-5-5-5-5-5-5-----------------------------------------------|
|--3-3-3-3-3-3-3-----------------------------------------------|
|--------------------------------------------------------------|

Chorus:
|----------------------------------------------------------------|
|----------------------------------------------------------------|
|----------------------------------------------------------------|
|--4-4-4-4^---4---------4^---4---------4^---4----0---0---4---4---|
|--2-2-2----2---2-5-5-5----------4-4-4-----------0---0---4---4---|
|-----------------5-5-5----5---5-4-4-4----4---4--0---0---4---4---|

Bridge: (rhythm guitar)
        (hit each chord 4 times every time it appears here)
|-------------------------------------------------------------------|
|-------------------------------------------------------------------|
|-------------------------------------------------------------------|
|--7--7--2--2--3--3--10--9------------------------------------------|
|--7--7--2--2--3--3--10--10-----------------------------------------|
|--7--7--2--2--3--3--10--9------------------------------------------|

         (lead guitar) - something close to this repeated over and over
|--------------------------------------------------------------|
|-------3-------3----------------------------------------------|
|---4-5---5-4-5---5--------------------------------------------|
|--------------------------------------------------------------|
|--------------------------------------------------------------|
|--------------------------------------------------------------|

tabbed by zipztabs.com
Enjoy!


Important: The song above is NOT stored on the Chordie server. The original song is hosted at www.xguitar.com. Chordie works as a search engine and provides on-the-fly formatting. Chordie does not index songs against artists'/composers' will. To remove this song please click here.

This song is displayed as text-only. Transposing and tuning is only available for chordpro-songs.

Login - add to songbook

Rating click stars to rate

Layout
Accuracy

SHARE PAGE  




You need to log in to post comments