Guitar Tabs, Chords and Lyrics


No One   Cold



Cold - No One
Tune down 2 half steps then apply drop D tuning
Low To High - C G C F A D

Verse I: (with flanger and chorus)
|----------------------------------------------------- 
|----------------------------------------------------- 
|----------------------------------------------------- 
|----7---7---8---8---8-----8---8------7-7-7-7^--7-5--- 
|------------------------6---6-----5------------------ 
|--5---5---5---5---5---5---------5-------------------- 
  
Verse II:
|------------------------------------------------------------|
|---------------------------6---6-----5-5-5-5^-5-------------|
|--7---7---7---7---7----7------------------------------------|
|----7---7---8---8---8----8---8---5-7------------------------|
|------------------------------------------------------------|
|------------------------------------------------------------|

Verse structure: play Verse I riff 3 times, then Verse II twice

Chorus:
|------------------------------------ 
|------------------------------------ 
|-5-5-5-5-5-5-5--3-3-3-3-3--2-2-2-2-- 
|-5-5-5-5-5-5-5--3-3-3-3-3--3-3-3-3-- 
|-3-3-3-3-3-3-3--1-1-1-1-1--0-0-0-0-- 
|------------------------------------ 
  
Bridge: 
|----------------------------------------------------------
|---------------------------------------------------------- 
|-------------------------------7-7-7---------5--5^-------- 
|----5---5---8-8^-5---5-7-8-8-8-------8-8-7-7-------8------
|----------------------------------------------------------
|--5---5---5--------5-------------------------------------- 
  
End with Verse/Intro part.

tabbed by zipztabs.com


Important: The song above is NOT stored on the Chordie server. The original song is hosted at www.xguitar.com. Chordie works as a search engine and provides on-the-fly formatting. Chordie does not index songs against artists'/composers' will. To remove this song please click here.

This song is displayed as text-only. Transposing and tuning is only available for chordpro-songs.

Login - add to songbook

Rating click stars to rate

Layout
Accuracy

Jango Player

SHARE PAGE  




You need to log in to post comments