Guitar Tabs, Chords and Lyrics


Outerspace   Cold



http://coldinside.com/
-------------------------------------
Band:   Cold
Song:   Outerspace
Album:  13 Ways To Bleed On Stage
Author: kyle@coldinside.com
Date:   May 5, 2001

Tuning: Drop C = low to high C G C F A D
================================================
Key:
z = pickscrape
~ = let ring
x = mute string
/ = slide 
\ = slide
^ = bend
* = palm mute
_ = echo
Intro:
D|---------------|---------------------------|
A|----13-14-13^--|----13-14-13--16-14-13-14/-|
F|-10------------|-10------------------------|
0:32
D|---------------|---------------------------|
A|----13-14-13---|----13-14-13--16-14-13-14--|
F|-10------------|-10------------------------|
   *   *  *  *     *   *  *  *   *  * *   *

Chorus
D|-------------------------------------|
A|-------------------------------------|
F|-------------------5-5-5--55-55-5-5--|
C|-0-0-0--00-00-0-0--5-5-5--55-55-5-5--|
G|-0-0-0--00-00-0-0--3-3-3--33-33-3-3--|
C|-0-0-0--00-00-0-0--------------------|

D|-------------------------------------|
A|-------------------------------------|
F|-4-4-4--44-44-4-4--2-2-2--22-22-2-2--|
C|-4-4-4--44-44-4-4--2-2-2--22-22-2-2--|
G|-2-2-2--22-22-2-2--0-0-0--00-00-0-0--|
C|-------------------------------------|

Bridge
D|----------------|---|
A|----------------|---|
F|---2-3---2------|-2-|
C|-0-----0---3--2-|---|
G|----------------|---|
C|----------------|---|

End on
C|-0~~~~~~-|
G|-0~~~~~~-|
C|-0~~~~~~-|


Important: The song above is NOT stored on the Chordie server. The original song is hosted at www.xguitar.com. Chordie works as a search engine and provides on-the-fly formatting. Chordie does not index songs against artists'/composers' will. To remove this song please click here.

This song is displayed as text-only. Transposing and tuning is only available for chordpro-songs.

Login - add to songbook

Rating click stars to rate

Layout
Accuracy

SHARE PAGE  




You need to log in to post comments