Guitar Tabs, Chords and Lyrics


Send In The Clowns   Cold



Cold - Send In The Clowns
Tune Down 2 Half Steps + Drop D
Low To High - C G C F A D

Intro: (with some effects like echo/delay)
|------------12----------------------------------------------------------|
|------12-11-12-11-12-11-12-- repeat ------------------------------------|
|--10--------------------------------------------------------------------|
|------------------------------------------------------------------------|
|------------------------------------------------------------------------|
|------------------------------------------------------------------------|

Chorus: (I'm not really sure about that last chord, but this sounds ok
         I think, i also thought it could be 9 9 12 x x x OR 9 10 10 x x x)
|------------------------------------------------------------------------|
|------------------------------------------------------------------------|
|------------------------------------------------------------------------|
|---7--7--7-7-7---5--3---3-3---3-3-3---12--12--12-12---9--9---9--9--9----|
|---7--7--7-7-7---5--3---3-3---3-3-3---10--10--10-10---10-10--10-10-10---|
|---7--7--7-7-7---5--3---3-3---3-3-3---10--10--10-10---9--9---9--9--9----|

BreaK Part:
(this is right before the 'Break')
|------------------------------------------------------------------------|
|------------------------------------------------------------------------|
|------------------------------------------------------------------------|
|---7---5----7---5----7---5---7---5--------------------------------------|
|---7---5----7---5----7---5---7---5--------------------------------------|
|---7---5----7---5----7---5---7---5--------------------------------------|

(either of the following 2 riffs are used for the Break)
|------------------------------------------------------------------------|
|------------------------------------------------------------------------|
|------------------------------------------------------------------------|
|--0-0--1-1--0----7--7--7--7-8--8----------------------------------------|
|--0-0--1-1--0----7--7--7--7-8--8----------------------------------------|
|--0-0--1-1--0----7--7--7--7-8--8----------------------------------------|

|------------------------------------------------------------------------|
|------------------------------------------------------------------------|
|------------------------------------------------------------------------|
|--0-0---1-1--0------7-0-7---8-0-8---------------------------------------|
|--0-0---1-1--0------7-0-7---8-0-8---------------------------------------|
|--0-0---1-1--0------7-0-7---8-0-8---------------------------------------|

tabbed by zipztabs
Enjoy!


Important: The song above is NOT stored on the Chordie server. The original song is hosted at www.xguitar.com. Chordie works as a search engine and provides on-the-fly formatting. Chordie does not index songs against artists'/composers' will. To remove this song please click here.

This song is displayed as text-only. Transposing and tuning is only available for chordpro-songs.

Login - add to songbook

Rating click stars to rate

Layout
Accuracy

SHARE PAGE  




You need to log in to post comments