Guitar Tabs, Chords and Lyrics


She Said   Cold



 ----------------------------------------------------------------------------------------------

             SONG: She Said
             BAND: Cold
            ALBUM: 13 Ways To Bleed On Stage
   TRANSCRIBED BY: Ken Ochalek (kennyochalek@hotmail.com)
             DATE: Unknown

 ----------------------------------------------------------------------------------------------

        TUNING: drop d and down one full step (C-G-C-F-A-D)
     PIANO INTRO: 

     not exact, but really damn close 

    ---------------------------------5-3-1-0------ 
    --1-3-1-----1-3-1------1-3-1-------------1---- 
    --------2---------2----------2---------------- 
    --0-------3---------3--0-------3------------3- 
    --------0---1----------------0---1------------ 
    ------------------3--------------------3------ 

     VERSE RIFF 1: 

     slightly distorted, with delay 
     (play notes in parenthesis if you aren't using delay) 

    ---------------------------------------------- 
    ---------------------------------------------- 
    ---------------------------------------------- 
    ---------------------------------------------- 
    --0--(0)--(0)--1--(1)--(1)--(1)--(1)---------- 
    ---------------------------------------------- 

     VERSE RIFF 2:

    ---------------------------------------------- 
    ---------------------------------------------- 
    -----2---2-----3---3-------------------------- 
    ---2--2------3--3----------4---------3-------- 
    -0-----0---1-----1-------4--4-----3----------- 
    -----------------------4-------3-------------- 

     CHORUS: 

     these are the chords, not the rhythms 

    ---------------------------- 
    ---------------------------- 
    ----12-----7-----8-----5---- 
    ----10-----5-----6-----3---- 
    ----10-----5-----6-----3---- 
    ----10-----5-----6-----3---- 

     VERSE 2: 

     Guitar 1 plays Verse Riff 1 

     Guitar 2 plays this (palm muted) 

    ---------------------------------------------- 
    ---------------------------------------------- 
    ---------------------------------------------- 
    ---------------------------------------------- 
    --00000-111111-------------------------------- 
    ------------------44444-333333---------------- 

     BRIDGE: 

     just chords and notes, no rhythms 

     Guitar 1 

    --------------------------------- 
    --------------------------------- 
    ----------2-----3---------------- 
    ----0-----2-----3-----3-----2---- 
    ----0-----0-----1-----3-----2---- 
    ----0-----------------3-----2---- 

     Guitar 2 

    ---------------------------------------------- 
    ---------------------------------------------- 
    -5---7-5-2---5---7-5-2---5---7-5-2--2/3/5--2-- 
    ---------------------------------------------- 
    ---------------------------------------------- 
    ---------------------------------------------- 




Important: The song above is NOT stored on the Chordie server. The original song is hosted at www.xguitar.com. Chordie works as a search engine and provides on-the-fly formatting. Chordie does not index songs against artists'/composers' will. To remove this song please click here.

This song is displayed as text-only. Transposing and tuning is only available for chordpro-songs.

Login - add to songbook

Rating click stars to rate

Layout
Accuracy

SHARE PAGE  




You need to log in to post comments