Guitar Tabs, Chords and Lyrics


Witch   Cold



Band: Cold 
Song: Witch 
Tuning: Drop D one-step (C G C F A D) 
Tabed by ATS
Intro 
D|---8-8-8-8-8-8-8-8-7-8-8-8-8-8-8-8--/14-12\-2-- 
A|--8-8-8-8-8-8-8-8-7-8-8-8-8-8-8-8-8------------ 
F|----------------------------------------------- 
C|----------------------------------------------- 
G|----------------------------------------------- 
C|----------------------------------------------- 
Verse 
D|---------------------------------- 
A|---------------------------------- 
F|---------------------------------- 
C|-3\5-5-5----3\5-5-5--3\5-5-1\5-5-- 
G|-1\3-3-3----1\3-3-3--1\3-3-1\3-3-- 
C|---------------------------------- 
Chorus 
D|------------------- 
A|------------------- 
F|------------------- 
C|------------------- 
G|-3-3-3-3--4-4-4-4-- 
C|-3-3-3-3--4-4-4-4-- 

Bridge\Outro "I think this fucking witch knows..." 
D|---8-8-8-8-14-14-12-12-- 
A|------------------------ 
F|------------------------ 
C|------------------------ 
G|------------------------ 


Important: The song above is NOT stored on the Chordie server. The original song is hosted at www.xguitar.com. Chordie works as a search engine and provides on-the-fly formatting. Chordie does not index songs against artists'/composers' will. To remove this song please click here.

This song is displayed as text-only. Transposing and tuning is only available for chordpro-songs.

Login - add to songbook

Rating click stars to rate

Layout
Accuracy

Jango Player

SHARE PAGE  




You need to log in to post comments