Guitar Tabs, Chords and Lyrics


Give   Cold



Cold - Give
Tune down 2 Half Steps + Drop D
Low To High - C G C F A D

Main Riff/Chorus:
|------------------------------------------------------------------------|
|------------------------------------------------------------------------|
|----------3-3-3-3-------------------------------------------------------|
|--0-0-0-0-3-3-3-3-3-3-3-3-1-1-1-1- repeat   ----------------------------|
|--0-0-0-0-1-1-1-1-3-3-3-3-1-1-1-1---------------------------------------|
|--0-0-0-0---------3-3-3-3-1-1-1-1---------------------------------------|

Pre-Chorus: (play each chord 8 times)
|------------------------------------------------------------------------|
|----------------------------------------3-------------------------------|
|--------------------------------------0-------0------3------------------|
|--5----3----1----3--- (guitar 2) ---0-------3------1--------------------|
|--5----3----1----3------------------------3------1----------------------|
|--5----3----1----3------------------------------------------------------|

That's it!

The strange sounding guitar break mid-song is just the pre-chorus chords 
with a flanger or phaser type effect.

tabbed by zipztabs.com
Enjoy!


Important: The song above is NOT stored on the Chordie server. The original song is hosted at www.xguitar.com. Chordie works as a search engine and provides on-the-fly formatting. Chordie does not index songs against artists'/composers' will. To remove this song please click here.

This song is displayed as text-only. Transposing and tuning is only available for chordpro-songs.

Login - add to songbook

Rating click stars to rate

Layout
Accuracy

Jango Player

SHARE PAGE  




You need to log in to post comments