Chordie logo


Serial Killer   Cold










Author/Artist: Cold
Title: Serial Killer
Album: Cold
Transcribed by: Wes Dolezal
Email: Laminate_Man@yahoo.com
Tunning: Drop D

This is the second song I tabed.  Don't forget to let me
know what you think of these tabs, and if I sohould go ahead
and do more.  Visit my website
http://www.geocities.com/SunsetStrip/Diner/8868/main.html

-|------------------------------------------------|
-|------------------------------------------------|
-|------------------------------------------------|
-|-8h10-10-10--8h10-10-10-8h10-8----8/10---10br~--|
-|-8-----8--8--8-----8--8-8----8--9------8--------|
-|------------------------------------------------|
Opening/main riff.

-|----------------------------------------|
-|-6h8-8-8-6h8-8-8-6h8r6------------------|
-|-----------------------6-6/8--5-5b6r5~--|
-|----------------------------------------|
-|----------------------------------------|
-|----------------------------------------|
Lead Riff play at the beging and in
the verse sometimes.

-|-----------------------------|
-|-6~~~~~~~-----8~~~~~--5~~~---|
-|-----------------------------|
-|-----------------------------|
-|-----------------------------|
-|-----------------------------|
You here these notes ring faintly in the verse sometimes.

-|------------|
-|------------|
-|------------|
-|-6---5---3--|
-|-6---5---3--|
-|-6---5---3--|
Chorus progression, you know the pattern.



Important: The song above is NOT stored on the Chordie server. The original song is hosted at www.xguitar.com. Chordie works as a search engine and provides on-the-fly formatting. Chordie does not index songs against artists/composers will. To remove this song please click here.

This song is displayed as text-only. Transposing and tuning is only available for chordpro-songs.

Login - add to songbook

Rating click stars to rate

Layout
Accuracy

SHARE PAGE  




You need to log in to post comments