Guitar Tabs, Chords and Lyrics


Strip Her Down   Cold



Song: Strip her down
Artist: Cold
From: COLD
Transcribed by: Domen K. (domen.konec@guest.arnes.si)
Date: 25.5.2002
Time: about 5:00 PM
Play this in drop C tuning. I was impressed with the part between 1:05min 
to 2:00min. I couldnt find any tabs about that song...I found a few but it 
was just a shit...so I figgured out. I think tabs are perfect...and its all
you need for this song...

INTRO & VERSES:
acoustic

---------------------------------------------------------------------------
---------------------------------------------------------------------------
---------5-5-5--5-5-5-5-5--------4-4-4--4-4-4-4-4--------3-3-3--3-3-3-3-3--
---------3-3-3--3-3-3-3-3--------2-2--2-2-2-2-2-2--------1--1-1-1-1-1------
---------3-3-3--3-3-3-3-3-x-xx-2-2-2--2-2-2-2-2-x-xx-1-1-1--1-1-1-1-1-x-xx-
-1-2-3-3-3-3--3-3-3-3-3-x-xx-2-2-2--2-2-2-2-2-x-xx-1-1-1--1-1-1-1-1-x-xx-0-

-----------------------
-----------------------
-----------------------  (x4)
-------2-2-------------
---0-0-2-2--2-2-2-2----
-0-0-0-0-0--0-0-0-0----
CHORUS:
Now comes my favorite part (in acoustic guitar playing ofcourse:) )
1:05
        
---x--|--x--------|--x-|--x-|--x--------|-----------|---------|-------|
--15--|-15--few---|-15-|-15-|-15--few---|-----few---|---few---|-------|
---x--|--x--times-|--x-|--x-|--x--times-|-----times-|---times-|-------| (x2)
--12--|-----------|-12-|--x-|-----------|-10--------|-5-------|-------|
--10--|-----------|-10-|-12-|-----------|-10--------|-5-------|-5/7/9-|
---x--|-----------|--x-|-10-|-----------|--8--------|-3-------|-3/5/7-|

"Could of stripped her down..."

than:
1:35

acoustic guitar
-x---------|----------|----------|-----------|
-12--few---|----few---|----few---|-----few---|
-12--times-|----times-|----times-|-----times-| (x2)
-12--------|-12-------|-10-------|---5-------|
-10--------|-12-------|-10-------|---5-------|
-x---------|-10-------|-8--------|-0-3-------|

with solo:

-----------------------------------12------12-------------------12----
--12^---12\8----8\3----3\------12^-----12^-----12^--------------------
-------------------------0--------------------------------------------
----------------------------------------------------------------------
----------------------------------------------------------------------
----------------------------------------------------------------------

Now comes the part with other guitars with good efekt and wah pedals - 
original cold sound:).I took this solo from someone from mxtabs...i just 
remixed it...

---------------------------------------------12-----12----------------
--12^---------12^----------------------12^-12---12^----12^------12^---
-----------------~-14\-7~---7\--------------------------11^-----------   (x3)
----------------------------------------------------------------------
----------------------------------------------------------------------
----------------------------------------------------------------------

than:
comes this small riff...
3:41
--------------------------------------------------------------
--------------------------------------------------------------
---------------------------------------4----------------------
--------------6-----------------------------------------------
--------------------6-------------6-----6---------------------
-4-5-6--6-----6----6-7-8--6-----------6--5--7-----------------

with solo infront
3:55

-------------------------------14-----------------------------
--12-13-10-15-12-12-/13~-12--12----12-------------------------
--------------------------------------------------------------
-------------------------------------------------------------- 
--------------------------------------------------------------
--------------------------------------------------------------

than comes the most agresive solo on guitar
4:22

--17^-17^----17^----17^------18^--18^-----18^----18^----------
--15^-----15^----15^----15^--16^-----16^-----16^----16^-------
--------------------------------------------------------------
--------------------------------------------------------------   
--------------------------------------------------------------
--------------------------------------------------------------

Outro:
5:58

--7-5-4-5-7-5-4-5-7-------7-5-4-5-5h7p5---7-5-4-5-7-5-4-5-4-5-4-------4-
------------------------------------------------------------------------
------------------------------------------------------------------------
------------------------------------------------------------------------ 
------------------------------------------------------------------------
------------------------------------------------------------------------
"i really love you guys..."

---------------------------------------------------------------
Lyrics:
Do you want me to strip for you?

Everybody played a game
How come you won't tell me the rules?
I'm tired of trying on new skin
I never listen; I'm a fool
And everybody ran away
How come you won't tell me where?
I guess I treated them too wrong
Now the sun don't shine on me
Now the rain won't even fall

Could of stripped her down
And made the world a mess for her
Never thought she could be this way
Should of stripped her down
And ripped the world from under her
Never thought she could be this way
Should've stripped her down

Now that the love has gone away
Too blind to see my way to live
I waste away from all the pain
For you I'd kill myself again
I hope you get to play your games
I hope you get to see your friends
I hope the guilt mixes the pain
I hope you never love again
Strip
Take it off

I'd die for your love / I really love your body
---------------------------------------------------------------

This song is very good. Its one of my favorite songs..it has very great 
lyrics...its helps me to get though my fucking life...THANK YOU COLD!!!
I really love you guys!
Email me if u have any questions or comments.



Important: The song above is NOT stored on the Chordie server. The original song is hosted at www.xguitar.com. Chordie works as a search engine and provides on-the-fly formatting. Chordie does not index songs against artists'/composers' will. To remove this song please click here.

This song is displayed as text-only. Transposing and tuning is only available for chordpro-songs.

Login - add to songbook

Rating click stars to rate

Layout
Accuracy

SHARE PAGE  




You need to log in to post comments